50:иgѕ w/e November 4 - still loving

Moderators: JSparksFan, tdc2000, FreakyFlyBry

 

Postby LittleArsonist » Thu Aug 07, 2014 7:18 am

Tansike wrote:Really glad to see Sam Smith getting some good success with his newest single "I'm Not The Only One". Also a great chartrun so far for Christina Perri's "Burning Gold". I just got into the song and due to this i got into the album again too!

Great new entry for Tony & JazzGa's "Anything Goes" :)
I love Christina! She captured my attention immediately when she was still unknown to the most.

I hope she'll keep on doing great :D

can't wait for a jazz album from LGG! :O it's definitely HER thing!
User avatar
LittleArsonist
Personal Assistant
 
Posts: 946
Joined: Wed Jan 14, 2004

Postby LittleArsonist » Thu Aug 07, 2014 7:35 am

cover
[TW] (WI)
artist
track title
[chartrun]
---------------------------------------------------------------------------------------------------------
::50 SONGS:: 32/52 :: week ending August 10 ::
---------------------------------------------------------------------------------------------------------
Image
Image [01] (03)
Bastille
Oblivion
[21-2-1]
---------------------------------------------------------------------------------------------------------
Image
Image [02] (05)
Sia
Big Girls Cry
[1-1-1-1-2]
---------------------------------------------------------------------------------------------------------
Image
Image [03] (07)
alt-J
Hunger of the Pine
[11-8-8-10-12-3-3]
---------------------------------------------------------------------------------------------------------
Image
Image [04] (01)
Paolo Nutini
Iron Sky

[4]
---------------------------------------------------------------------------------------------------------
Image
Image [05] (06)
Hozier
Sedated
[4-2-2-4-5-5]
---------------------------------------------------------------------------------------------------------
Image
Image [06] (03)
Banks
Beggin' For Thread
[6-4-6]
---------------------------------------------------------------------------------------------------------
Image
Image [07] (01)
Ed Sheeran
Don't

[7]
---------------------------------------------------------------------------------------------------------
Image
Image [08] (07)
George Ezra
Budapest
[5-2-4-3-3-6-8]
---------------------------------------------------------------------------------------------------------
Image
Image [09] (03)
Sam Smith
I'm Not the Only One
[9-7-9]
---------------------------------------------------------------------------------------------------------
Image
Image [10] (01)
Coldplay
True Love

[10]
---------------------------------------------------------------------------------------------------------
Image
Image [11] (09)
Paolo Nutini
Let Me Down Easy
[37-10-2-1-3-4-5-8-11]
---------------------------------------------------------------------------------------------------------
Image
Image [12] (06)
Paloma Faith
Trouble with My Baby
[11-7-6-10-13-12]
---------------------------------------------------------------------------------------------------------
Image
Image [13] (06)
Christina Perri
Burning Gold
[28-11-9-8-14-13]
---------------------------------------------------------------------------------------------------------
Image
Image [14] (04)
Tove Lo
Habits
[17-11-9-14]
---------------------------------------------------------------------------------------------------------
Image
Image [15] (10)
Editors
Sugar
[2-1-1-1-5-6-8-2-10-15]
---------------------------------------------------------------------------------------------------------
Image
Image [16] (05)
First Aid Kit
My Silver Lining
[50-43-27-17-16]
---------------------------------------------------------------------------------------------------------
Image
Image [17] (03)
Interpol
All the Rage Back Home
[29-20-17]
---------------------------------------------------------------------------------------------------------
Image
Image [18] (03)
Colbie Caillat
Try
[26-18-18]
---------------------------------------------------------------------------------------------------------
Image
Image [19] (05)
Cat Power & Coldplay
Wish I Was Here
[10-5-7-11-19]
---------------------------------------------------------------------------------------------------------
Image
Image [20] (06)
Milky Chance
Stolen Dance
[42-29-16-15-12-20]
---------------------------------------------------------------------------------------------------------
Image
Image [21] (03)
La Roux
Uptight Downtown
[31-28-21]
---------------------------------------------------------------------------------------------------------
Image
Image [22] (01)
Lana Del Rey
Ultraviolence

[22]
---------------------------------------------------------------------------------------------------------
Image
Image [23] (07)
Lenny Kravitz
The Chamber
[3-3-5-7-13-15-23]
---------------------------------------------------------------------------------------------------------
Image
Image [24] (16)
Hozier
From Eden
[10-9-11-14-18-21-24-20-21-23-23-22-23-22-21-24]
---------------------------------------------------------------------------------------------------------
Image
Image [25] (02)
Lenny Kravitz
Sex
[31-25]
---------------------------------------------------------------------------------------------------------
Image
Image [26] (08)
Beyoncé
Pretty Hurts
[17-12-12-15-14-16-16-26]
---------------------------------------------------------------------------------------------------------
Image
Image [27] (12)
Ed Sheeran
One
[4-3-5-7-9-7-7-14-18-18-22-27]
---------------------------------------------------------------------------------------------------------
Image
Image [28] (07)
Arctic Monkeys
Snap Out of It
[9-9-9-11-14-19-28]
---------------------------------------------------------------------------------------------------------
Image
Image [29] (12)
Sam Smith
Stay with Me
[7-2-1-4-3-6-10-13-12-17-23-29]
---------------------------------------------------------------------------------------------------------
Image
Image [30] (05)
LP
Night Like This
[45-38-30-25-30]
---------------------------------------------------------------------------------------------------------
Image
Image [31] (02)
Kasabian
Bumblebeee
[30-31]
---------------------------------------------------------------------------------------------------------
Image
Image [32] (05)
alt-J
Left Hand Free
[33-20-25-26-32]
---------------------------------------------------------------------------------------------------------
Image
Image [33] (17)
Paloma Faith
Only Love Can Hurt Like This
[24-17-13-10-8-4-2-1-3-2-2-4-6-12-13-19-24-33]
---------------------------------------------------------------------------------------------------------
Image
Image [34] (03)
The Script
Superheroes
[49-33-34]
---------------------------------------------------------------------------------------------------------
Image
Image [35] (08)
Maroon 5
Maps
[20-18-16-18-15-20-27-35]
---------------------------------------------------------------------------------------------------------
Image
Image [36] (02)
Tony Bennett & Lady Gaga
Anything Goes
[34-36]
---------------------------------------------------------------------------------------------------------
Image
Image [37] (02)
Kaiser Chiefs
Meanwhile Up In Heaven
[35-37]
---------------------------------------------------------------------------------------------------------
Image
Image [38] (02)
OneRepublic
Ordinary Human
[40-38]
---------------------------------------------------------------------------------------------------------
Image
Image [39] (10)
Foster the People
Best Friend
[15-13-11-14-15-17-21-24-29-39]
---------------------------------------------------------------------------------------------------------
Image
Image [40] (10)
Kasabian
Eez-Eh
[8-3-4-8-13-16-19-23-32-40]
---------------------------------------------------------------------------------------------------------
Image
Image [41] (04)
Usher
She Came To Give It To You (featuring Nicki Minaj)
[49-48-44-41]
---------------------------------------------------------------------------------------------------------
Image
Image [42] (11)
Lana Del Rey
Shades of Cool
[4-4-6-5-13-18-23-28-33-36-42]
---------------------------------------------------------------------------------------------------------
Image
Image [43] (02)
Nico & Vinz
Am I Wrong
[50-43]
---------------------------------------------------------------------------------------------------------
Image
Image [44] (18)
Ed Sheeran
Sing
[5-3-1-2-3-6-8-13-17-12-12-15-17-19-26-37-41-44]
---------------------------------------------------------------------------------------------------------
Image
Image [45] (03)
MAGIC!
Rude
[50-49-45]
---------------------------------------------------------------------------------------------------------
Image
Image [46] (19)
Royal Blood
Little Monster
[41-37-37-33-25-16-13-10-8-6-5-6-10-14-20-22-28-38-46]
---------------------------------------------------------------------------------------------------------
Image
Image [47] (11)
Bombay Bicycle Club
Feel
[42-35-25-24-24-20-24-24-32-42-47]
---------------------------------------------------------------------------------------------------------
Image
Image [48] (17)
Passenger
Heart's On Fire
[32-30-29-24-22-21-18-20-18-19-25-27-32-34-39-45-48]
---------------------------------------------------------------------------------------------------------
Image
Image [49] (17)
Lana Del Rey
West Coast
[44-27-27-10-8-14-16-16-17-22-26-25-31-31-38-43-49]
---------------------------------------------------------------------------------------------------------
Image
Image [50] (09)
Jack White
Lazaretto
[46-36-30-31-27-27-34-39-50]
---------------------------------------------------------------------------------------------------------
OUT
---------------------------------------------------------------------------------------------------------
[37] (20)
Sia
Chandelier
[1-1-1-1-1-3-5-7-9-11-6-9-9-7-16-19-21-25-35-37]
---------------------------------------------------------------------------------------------------------
[46] (14)
Prince
The Breakdown
[6-4-5-6-9-13-15-18-22-24-28-30-36-46]
---------------------------------------------------------------------------------------------------------
[47] (09)
Imagine Dragons
Battle Cry
[44-41-40-38-36-36-33-41-47]
---------------------------------------------------------------------------------------------------------
[48] (11)
The Kooks
Around Town
[34-24-21-16-14-17-22-25-29-40-48]
---------------------------------------------------------------------------------------------------------
Last edited by LittleArsonist on Sun Oct 12, 2014 10:48 am, edited 2 times in total.
User avatar
LittleArsonist
Personal Assistant
 
Posts: 946
Joined: Wed Jan 14, 2004

Postby Tansike » Thu Aug 07, 2014 12:58 pm

...agree with GaGa... She sounds fantastic on "Anything Goes" so i'm pretty excited for the jazz album, even when jazz isn't my genre at all...

LOVE the new entries for Ed and Lana, definitely two really great songs. Also nice new entry for Coldplay's new single :)
User avatar
Tansike
Legend
 
Posts: 44835
Joined: Sat Jan 28, 2012
Location: Switzerland

Postby navi » Thu Aug 07, 2014 1:22 pm

LittleArsonist wrote:
navi wrote:Checked your last.fm profile,
(so many great stuff there).
I was wandering, did you ever check our Retro charts section.
(maybe you might participate)
will definitely take a look! sounds interesting :)
are you on last.fm too? :)
No last.fm profile (or Twitter, or Facebook, etc), only UKMix

All this week new entries are (so) depresing.
(Bad weather or what)
My year(s) in lists by Ivan (2008 - 2013)
User avatar
navi
Legend
 
Posts: 10307
Joined: Wed Aug 14, 2013
Location: Zagreb/Croatia

Postby LittleArsonist » Thu Aug 14, 2014 9:25 am

cover
[TW] (WI)
artist
track title
[chartrun]
---------------------------------------------------------------------------------------------------------
::50 SONGS:: 33/52 :: week ending August 17 ::
---------------------------------------------------------------------------------------------------------
Image
Image [01] (02)
Paolo Nutini
Iron Sky
[4-1]
---------------------------------------------------------------------------------------------------------
Image
Image [02] (04)
Bastille
Oblivion
[21-2-1-2]
---------------------------------------------------------------------------------------------------------
Image
Image [03] (06)
Sia
Big Girls Cry
[1-1-1-1-2-3]
---------------------------------------------------------------------------------------------------------
Image
Image [04] (02)
Ed Sheeran
Don't
[7-4]
---------------------------------------------------------------------------------------------------------
Image
Image [05] (08)
alt-J
Hunger of the Pine
[11-8-8-10-12-3-3-5]
---------------------------------------------------------------------------------------------------------
Image
Image [06] (07)
Hozier
Sedated
[4-2-2-4-5-5-6]
---------------------------------------------------------------------------------------------------------
Image
Image [07] (04)
Sam Smith
I'm Not the Only One
[9-7-9-7]
---------------------------------------------------------------------------------------------------------
Image
Image [08] (04)
Banks
Beggin' For Thread
[6-4-6-8]
---------------------------------------------------------------------------------------------------------
Image
Image [09] (02)
Coldplay
True Love
[10-9]
---------------------------------------------------------------------------------------------------------
Image
Image [10] (02)
Lana Del Rey
Ultraviolence
[22-10]
---------------------------------------------------------------------------------------------------------
Image
Image [11] (08)
George Ezra
Budapest
[5-2-4-3-3-6-8-11]
---------------------------------------------------------------------------------------------------------
Image
Image [12] (07)
Paloma Faith
Trouble with My Baby
[11-7-6-10-13-12-12]
---------------------------------------------------------------------------------------------------------
Image
Image [13] (01)
Sinéad O'Connor
Take Me To Church

[13]
---------------------------------------------------------------------------------------------------------
Image
Image [14] (07)
Christina Perri
Burning Gold
[28-11-9-8-14-13-14]
---------------------------------------------------------------------------------------------------------
Image
Image [15] (06)
First Aid Kit
My Silver Lining
[50-43-27-17-16-15]
---------------------------------------------------------------------------------------------------------
Image
Image [16] (10)
Paolo Nutini
Let Me Down Easy
[37-10-2-1-3-4-5-8-11-16]
---------------------------------------------------------------------------------------------------------
Image
Image [17] (04)
Interpol
All the Rage Back Home
[29-20-17-17]
---------------------------------------------------------------------------------------------------------
Image
Image [18] (04)
La Roux
Uptight Downtown
[31-28-21-18]
---------------------------------------------------------------------------------------------------------
Image
Image [19] (01)
Maroon 5
It Was Always You

[19]
---------------------------------------------------------------------------------------------------------
Image
Image [20] (05)
Tove Lo
Habits
[17-11-9-14-20]
---------------------------------------------------------------------------------------------------------
Image
Image [21] (04)
Colbie Caillat
Try
[26-18-18-21]
---------------------------------------------------------------------------------------------------------
Image
Image [22] (11)
Editors
Sugar
[2-1-1-1-5-6-8-2-10-15-22]
---------------------------------------------------------------------------------------------------------
Image
Image [23] (04)
The Script
Superheroes
[49-33-34-23]
---------------------------------------------------------------------------------------------------------
Image
Image [24] (07)
Milky Chance
Stolen Dance
[42-29-16-15-12-20-24]
---------------------------------------------------------------------------------------------------------
Image
Image [25] (08)
Lenny Kravitz
The Chamber
[3-3-5-7-13-15-23-25]
---------------------------------------------------------------------------------------------------------
Image
Image [26] (06)
LP
Night Like This
[45-38-30-25-30-26]
---------------------------------------------------------------------------------------------------------
Image
Image [27] (06)
Cat Power & Coldplay
Wish I Was Here
[10-5-7-11-19-27]
---------------------------------------------------------------------------------------------------------
Image
Image [28] (03)
Kasabian
Bumblebeee
[30-31-28]
---------------------------------------------------------------------------------------------------------
Image
Image [29] (03)
Lenny Kravitz
Sex
[31-25-29]
---------------------------------------------------------------------------------------------------------
Image
Image [30] (13)
Ed Sheeran
One
[4-3-5-7-9-7-7-14-18-18-22-27-30]
---------------------------------------------------------------------------------------------------------
Image
Image [31] (03)
OneRepublic
Ordinary Human
[40-38-31]
---------------------------------------------------------------------------------------------------------
Image
Image [32] (03)
Kaiser Chiefs
Meanwhile Up In Heaven
[35-37-32]
---------------------------------------------------------------------------------------------------------
Image
Image [33] (08)
Arctic Monkeys
Snap Out of It
[9-9-9-11-14-19-28-33]
---------------------------------------------------------------------------------------------------------
Image
Image [34] (17)
Hozier
From Eden
[10-9-11-14-18-21-24-20-21-23-23-22-23-22-21-24-34]
---------------------------------------------------------------------------------------------------------
Image
Image [35] (13)
Sam Smith
Stay with Me
[7-2-1-4-3-6-10-13-12-17-23-29-35]
---------------------------------------------------------------------------------------------------------
Image
Image [36] (03)
Tony Bennett & Lady Gaga
Anything Goes
[34-36-36]
---------------------------------------------------------------------------------------------------------
Image
Image [37] (09)
Beyoncé
Pretty Hurts
[17-12-12-15-14-16-16-26-37]
---------------------------------------------------------------------------------------------------------
Image
Image [38] (01)
Counting Crows
Palisades Park

[38]
---------------------------------------------------------------------------------------------------------
Image
Image [39] (06)
alt-J
Left Hand Free
[33-20-25-26-32-39]
---------------------------------------------------------------------------------------------------------
Image
Image [40] (05)
Usher
She Came To Give It To You (featuring Nicki Minaj)
[49-48-44-41-40]
---------------------------------------------------------------------------------------------------------
Image
Image [41] (09)
Maroon 5
Maps
[20-18-16-18-15-20-27-35-41]
---------------------------------------------------------------------------------------------------------
Image
Image [42] (18)
Paloma Faith
Only Love Can Hurt Like This
[24-17-13-10-8-4-2-1-3-2-2-4-6-12-13-19-24-33-42]
---------------------------------------------------------------------------------------------------------
Image
Image [43] (03)
Nico & Vinz
Am I Wrong
[50-43-43]
---------------------------------------------------------------------------------------------------------
Image
Image [44] (11)
Foster the People
Best Friend
[15-13-11-14-15-17-21-24-29-39-44]
---------------------------------------------------------------------------------------------------------
Image
Image [45] (04)
Magic!
Rude
[50-49-45-45]
---------------------------------------------------------------------------------------------------------
Image
Image [46] (11)
Kasabian
Eez-Eh
[8-3-4-8-13-16-19-23-32-40-46]
---------------------------------------------------------------------------------------------------------
Image
Image [47] (19)
Ed Sheeran
Sing
[5-3-1-2-3-6-8-13-17-12-12-15-17-19-26-37-41-44-47]
---------------------------------------------------------------------------------------------------------
Image
Image [48] (01)
Gavin DeGraw
Fire

[48]
---------------------------------------------------------------------------------------------------------
Image
Image [49] (20)
Royal Blood
Little Monster
[41-37-37-33-25-16-13-10-8-6-5-6-10-14-20-22-28-38-46-49]
---------------------------------------------------------------------------------------------------------
Image
Image [50] (12)
Lana Del Rey
Shades of Cool
[4-4-6-5-13-18-23-28-33-36-42-50]
---------------------------------------------------------------------------------------------------------
OUT
---------------------------------------------------------------------------------------------------------
[47] (11)
Bombay Bicycle Club
Feel
[42-35-25-24-24-20-24-24-32-42-47]
---------------------------------------------------------------------------------------------------------
[48] (17)
Passenger
Heart's On Fire
[32-30-29-24-22-21-18-20-18-19-25-27-32-34-39-45-48]
---------------------------------------------------------------------------------------------------------
[49] (17)
Lana Del Rey
West Coast
[44-27-27-10-8-14-16-16-17-22-26-25-31-31-38-43-49]
---------------------------------------------------------------------------------------------------------
[50] (09)
Jack White
Lazaretto
[46-36-30-31-27-27-34-39-50]
---------------------------------------------------------------------------------------------------------
Last edited by LittleArsonist on Sun Oct 12, 2014 10:48 am, edited 1 time in total.
User avatar
LittleArsonist
Personal Assistant
 
Posts: 946
Joined: Wed Jan 14, 2004

Postby Tansike » Fri Aug 15, 2014 7:27 pm

Great increase for Lana Del Rey's "Ultraviolence" :D
User avatar
Tansike
Legend
 
Posts: 44835
Joined: Sat Jan 28, 2012
Location: Switzerland

Postby LittleArsonist » Tue Aug 19, 2014 9:52 am

Tansike wrote:Great increase for Lana Del Rey's "Ultraviolence" :D
she always does that to me! hahaha
love the video for it... :o
User avatar
LittleArsonist
Personal Assistant
 
Posts: 946
Joined: Wed Jan 14, 2004

Postby Tansike » Wed Aug 20, 2014 12:37 pm

LittleArsonist wrote:
Tansike wrote:Great increase for Lana Del Rey's "Ultraviolence" :D
she always does that to me! hahaha
love the video for it... :o
I love it too... but it looks like a lot people dislike it :-?
User avatar
Tansike
Legend
 
Posts: 44835
Joined: Sat Jan 28, 2012
Location: Switzerland

Postby LittleArsonist » Thu Aug 21, 2014 8:16 pm

Tansike wrote:
LittleArsonist wrote:
Tansike wrote:Great increase for Lana Del Rey's "Ultraviolence" :D
she always does that to me! hahaha
love the video for it... :o
I love it too... but it looks like a lot people dislike it :-?
I tend to love what most people dislike...so it's the same routine to me :D
User avatar
LittleArsonist
Personal Assistant
 
Posts: 946
Joined: Wed Jan 14, 2004

Postby LittleArsonist » Thu Aug 21, 2014 8:26 pm

cover
[TW] (WI)
artist
track title
[chartrun]
---------------------------------------------------------------------------------------------------------
::50 SONGS:: 34/52 :: week ending August 24 ::
---------------------------------------------------------------------------------------------------------
Image
Image [01] (03)
Paolo Nutini
Iron Sky
[4-1-1]
---------------------------------------------------------------------------------------------------------
Image
Image [02] (02)
Sinéad O'Connor
Take Me to Church
[13-2]
---------------------------------------------------------------------------------------------------------
Image
Image [03] (07)
Sia
Big Girls Cry
[1-1-1-1-2-3-3]
---------------------------------------------------------------------------------------------------------
Image
Image [04] (03)
Ed Sheeran
Don't
[7-4-4]
---------------------------------------------------------------------------------------------------------
Image
Image [05] (05)
Bastille
Oblivion
[21-2-1-2-5]
---------------------------------------------------------------------------------------------------------
Image
Image [06] (09)
alt-J
Hunger of the Pine
[11-8-8-10-12-3-3-5-6]
---------------------------------------------------------------------------------------------------------
Image
Image [07] (03)
Lana Del Rey
Ultraviolence
[22-10-7]
---------------------------------------------------------------------------------------------------------
Image
Image [08] (08)
Hozier
Sedated
[4-2-2-4-5-5-6-8]
---------------------------------------------------------------------------------------------------------
Image
Image [09] (05)
Sam Smith
I'm Not the Only One
[9-7-9-7-9]
---------------------------------------------------------------------------------------------------------
Image
Image [10] (05)
La Roux
Uptight Downtown
[31-28-21-18-10]
---------------------------------------------------------------------------------------------------------
Image
Image [11] (03)
Coldplay
True Love
[10-9-11]
---------------------------------------------------------------------------------------------------------
Image
Image [12] (05)
Banks
Beggin' For Thread
[6-4-6-8-12]
---------------------------------------------------------------------------------------------------------
Image
Image [13] (07)
First Aid Kit
My Silver Lining
[50-43-27-17-16-15-13]
---------------------------------------------------------------------------------------------------------
Image
Image [14] (08)
Paloma Faith
Trouble with My Baby
[11-7-6-10-13-12-12-14]
---------------------------------------------------------------------------------------------------------
Image
Image [15] (05)
Interpol
All the Rage Back Home
[29-20-17-17-15]
---------------------------------------------------------------------------------------------------------
Image
Image [16] (02)
Maroon 5
It Was Always You
[19-16]
---------------------------------------------------------------------------------------------------------
Image
Image [17] (09)
George Ezra
Budapest
[5-2-4-3-3-6-8-11-17]
---------------------------------------------------------------------------------------------------------
Image
Image [18] (08)
Christina Perri
Burning Gold
[28-11-9-8-14-13-14-18]
---------------------------------------------------------------------------------------------------------
Image
Image [19] (05)
Colbie Caillat
Try
[26-18-18-21-19]
---------------------------------------------------------------------------------------------------------
Image
Image [20] (06)
Tove Lo
Habits
[17-11-9-14-20-20]
---------------------------------------------------------------------------------------------------------
Image
Image [21] (05)
The Script
Superheroes
[49-33-34-23-21]
---------------------------------------------------------------------------------------------------------
Image
Image [22] (01)
George Ezra
Blame It on Me

[22]
---------------------------------------------------------------------------------------------------------
Image
Image [23] (11)
Paolo Nutini
Let Me Down Easy
[37-10-2-1-3-4-5-8-11-16-23]
---------------------------------------------------------------------------------------------------------
Image
Image [24] (07)
LP
Night Like This
[45-38-30-25-30-26-24]
---------------------------------------------------------------------------------------------------------
Image
Image [25] (07)
Cat Power & Coldplay
Wish I Was Here
[10-5-7-11-19-27-25]
---------------------------------------------------------------------------------------------------------
Image
Image [26] (09)
Lenny Kravitz
The Chamber
[3-3-5-7-13-15-23-25-26]
---------------------------------------------------------------------------------------------------------
Image
Image [27] (12)
Editors
Sugar
[2-1-1-1-5-6-8-2-10-15-22-27]
---------------------------------------------------------------------------------------------------------
Image
Image [28] (04)
Kasabian
Bumblebeee
[30-31-28-28]
---------------------------------------------------------------------------------------------------------
Image
Image [29] (08)
Milky Chance
Stolen Dance
[42-29-16-15-12-20-24-29]
---------------------------------------------------------------------------------------------------------
Image
Image [30] (04)
OneRepublic
Ordinary Human
[40-38-31-30]
---------------------------------------------------------------------------------------------------------
Image
Image [31] (04)
Lenny Kravitz
Sex
[31-25-29-31]
---------------------------------------------------------------------------------------------------------
Image
Image [32] (04)
Kaiser Chiefs
Meanwhile Up In Heaven
[35-37-32-32]
---------------------------------------------------------------------------------------------------------
Image
Image [33] (06)
Usher
She Came To Give It To You (featuring Nicki Minaj)
[49-48-44-41-40-33]
---------------------------------------------------------------------------------------------------------
Image
Image [34] (04)
Tony Bennett & Lady Gaga
Anything Goes
[34-36-36-34]
---------------------------------------------------------------------------------------------------------
Image
Image [35] (14)
Ed Sheeran
One
[4-3-5-7-9-7-7-14-18-18-22-27-30-35]
---------------------------------------------------------------------------------------------------------
Image
Image [36] (02)
Counting Crows
Palisades Park
[38-36]
---------------------------------------------------------------------------------------------------------
Image
Image [37] (18)
Hozier
From Eden
[10-9-11-14-18-21-24-20-21-23-23-22-23-22-21-24-34-37]
---------------------------------------------------------------------------------------------------------
Image
Image [38] (04)
Nico & Vinz
Am I Wrong
[50-43-43-38]
---------------------------------------------------------------------------------------------------------
Image
Image [39] (09)
Arctic Monkeys
Snap Out of It
[9-9-9-11-14-19-28-33-39]
---------------------------------------------------------------------------------------------------------
Image
Image [40] (14)
Sam Smith
Stay with Me
[7-2-1-4-3-6-10-13-12-17-23-29-35-40]
---------------------------------------------------------------------------------------------------------
Image
Image [41] (07)
alt-J
Left Hand Free
[33-20-25-26-32-39-41]
---------------------------------------------------------------------------------------------------------
Image
Image [42] (05)
Magic!
Rude
[50-49-45-45-42]
---------------------------------------------------------------------------------------------------------
Image
Image [43] (01)
Foxes
Glorious

[43]
---------------------------------------------------------------------------------------------------------
Image
Image [44] (10)
Beyoncé
Pretty Hurts
[17-12-12-15-14-16-16-26-37-44]
---------------------------------------------------------------------------------------------------------
Image
Image [45] (10)
Maroon 5
Maps
[20-18-16-18-15-20-27-35-41-45]
---------------------------------------------------------------------------------------------------------
Image
Image [46] (02)
Gavin DeGraw
Fire
[48-46]
---------------------------------------------------------------------------------------------------------
Image
Image [47] (19)
Paloma Faith
Only Love Can Hurt Like This
[24-17-13-10-8-4-2-1-3-2-2-4-6-12-13-19-24-33-42-47]
---------------------------------------------------------------------------------------------------------
Image
Image [48] (01)
Katy Perry
This Is How We Do

[48]
---------------------------------------------------------------------------------------------------------
Image
Image [49] (12)
Foster the People
Best Friend
[15-13-11-14-15-17-21-24-29-39-44-49]
---------------------------------------------------------------------------------------------------------
Image
Image [50] (01)
Echosmith
Cool Kids

[50]
---------------------------------------------------------------------------------------------------------
OUT
---------------------------------------------------------------------------------------------------------
[46] (11)
Kasabian
Eez-Eh
[8-3-4-8-13-16-19-23-32-40-46]
---------------------------------------------------------------------------------------------------------
[47] (19)
Ed Sheeran
Sing
[5-3-1-2-3-6-8-13-17-12-12-15-17-19-26-37-41-44-47]
---------------------------------------------------------------------------------------------------------
[49] (20)
Royal Blood
Little Monster
[41-37-37-33-25-16-13-10-8-6-5-6-10-14-20-22-28-38-46-49]
---------------------------------------------------------------------------------------------------------
[50] (12)
Lana Del Rey
Shades of Cool
[4-4-6-5-13-18-23-28-33-36-42-50]
---------------------------------------------------------------------------------------------------------
Last edited by LittleArsonist on Sun Oct 12, 2014 10:48 am, edited 1 time in total.
User avatar
LittleArsonist
Personal Assistant
 
Posts: 946
Joined: Wed Jan 14, 2004

Postby navi » Wed Aug 27, 2014 8:26 am

This week falling songs from the list better than the entering ones :(
but anyway
Like George Ezra new song
(reminds me a little bit of Jake Bugg,
and he seems to grow up from Budapest video),
also like Echosmith,
Foxes - pop is not my kind of music, although
this spring i was obsessed with Young summer - Taken
- a perfect pop song 8-)
Only like first two singles from Katy,
I kissed a girl and especially Hot 'n' cold.
My year(s) in lists by Ivan (2008 - 2013)
User avatar
navi
Legend
 
Posts: 10307
Joined: Wed Aug 14, 2013
Location: Zagreb/Croatia

Postby Tansike » Thu Aug 28, 2014 9:29 am

Glad to see "Ultraviolence" still rising and great stability for Christina Perri's "Burning Gold" and Colbie Caillat's "Try" :)

Good new entries by Katy and Foxes! :)
User avatar
Tansike
Legend
 
Posts: 44835
Joined: Sat Jan 28, 2012
Location: Switzerland

Postby Era » Sun Aug 31, 2014 3:15 pm

WOW !!! LOVE the presentation :o :D

N love so many songs as well ! I hope "Habits" rises next week :D
I had all and then most of you, some and now none of you.
User avatar
Era
Legend
 
Posts: 18633
Joined: Mon Mar 18, 2013
Location: Old Monte Carlo

Postby LittleArsonist » Wed Sep 03, 2014 11:04 am

thanks Tansike and Era for following the updates and for the nice comments :)

I was in holidays so I skipped posting last week's chart...which I'm gonna do NOW.

And tomorrow new update..... ;)
User avatar
LittleArsonist
Personal Assistant
 
Posts: 946
Joined: Wed Jan 14, 2004

Postby LittleArsonist » Wed Sep 03, 2014 11:06 am

navi wrote:Like George Ezra new song
(reminds me a little bit of Jake Bugg,
and he seems to grow up from Budapest video)
Saw him live this summer supporting Bastille and was really impressed... I actually went more to see HIM than THEM. Hope his fame rises :)

also like Echosmith
one of those catchy pop songs that I really like...her voice reminds me Edie Brickell quite a lot!

Foxes - pop is not my kind of music, although
this spring i was obsessed with Young summer - Taken
- a perfect pop song 8-)
was expecting more from Foxes album...but this single is definitely my fav song off her cd.

Only like first two singles from Katy,
I kissed a girl and especially Hot 'n' cold.
her first album was THE album... anyway she's not being any higher than that in my chart with that song hehe
User avatar
LittleArsonist
Personal Assistant
 
Posts: 946
Joined: Wed Jan 14, 2004

Postby LittleArsonist » Wed Sep 03, 2014 11:16 am

cover
[TW] (WI)
artist
track title
[chartrun]
---------------------------------------------------------------------------------------------------------
::50 SONGS:: 35/52 :: week ending August 31 ::
---------------------------------------------------------------------------------------------------------
Image
Image [01] (03)
Sinéad O'Connor
Take Me to Church
[13-2-1]
---------------------------------------------------------------------------------------------------------
Image
Image [02] (04)
Paolo Nutini
Iron Sky
[4-1-1-2]
---------------------------------------------------------------------------------------------------------
Image
Image [03] (06)
La Roux
Uptight Downtown
[31-28-21-18-10-3]
---------------------------------------------------------------------------------------------------------
Image
Image [04] (08)
Sia
Big Girls Cry
[1-1-1-1-2-3-3-4]
---------------------------------------------------------------------------------------------------------
Image
Image [05] (10)
alt-J
Hunger of the Pine
[11-8-8-10-12-3-3-5-6-5]
---------------------------------------------------------------------------------------------------------
Image
Image [06] (04)
Ed Sheeran
Don't
[7-4-4-6]
---------------------------------------------------------------------------------------------------------
Image
Image [07] (04)
Lana Del Rey
Ultraviolence
[22-10-7-7]
---------------------------------------------------------------------------------------------------------
Image
Image [08] (06)
Bastille
Oblivion
[21-2-1-2-5-8]
---------------------------------------------------------------------------------------------------------
Image
Image [09] (04)
Coldplay
True Love
[10-9-11-9]
---------------------------------------------------------------------------------------------------------
Image
Image [10] (08)
First Aid Kit
My Silver Lining
[50-43-27-17-16-15-13-10]
---------------------------------------------------------------------------------------------------------
Image
Image [11] (09)
Hozier
Sedated
[4-2-2-4-5-5-6-8-11]
---------------------------------------------------------------------------------------------------------
Image
Image [12] (06)
Interpol
All the Rage Back Home
[29-20-17-17-15-12]
---------------------------------------------------------------------------------------------------------
Image
Image [13] (06)
Sam Smith
I'm Not the Only One
[9-7-9-7-9-13]
---------------------------------------------------------------------------------------------------------
Image
Image [14] (06)
Colbie Caillat
Try
[26-18-18-21-19-14]
---------------------------------------------------------------------------------------------------------
Image
Image [15] (09)
Christina Perri
Burning Gold
[28-11-9-8-14-13-14-18-15]
---------------------------------------------------------------------------------------------------------
Image
Image [16] (06)
Banks
Beggin' For Thread
[6-4-6-8-12-16]
---------------------------------------------------------------------------------------------------------
Image
Image [17] (09)
Paloma Faith
Trouble with My Baby
[11-7-6-10-13-12-12-14-17]
---------------------------------------------------------------------------------------------------------
Image
Image [18] (02)
George Ezra
Blame It on Me
[22-18]
---------------------------------------------------------------------------------------------------------
Image
Image [19] (07)
Tove Lo
Habits
[17-11-9-14-20-20-19]
---------------------------------------------------------------------------------------------------------
Image
Image [20] (08)
LP
Night Like This
[45-38-30-25-30-26-24-20]
---------------------------------------------------------------------------------------------------------
Image
Image [21] (03)
Maroon 5
It Was Always You
[19-16-21]
---------------------------------------------------------------------------------------------------------
Image
Image [22] (06)
The Script
Superheroes
[49-33-34-23-21-22]
---------------------------------------------------------------------------------------------------------
Image
Image [23] (10)
George Ezra
Budapest
[5-2-4-3-3-6-8-11-17-23]
---------------------------------------------------------------------------------------------------------
Image
Image [24] (07)
Usher
She Came To Give It To You (featuring Nicki Minaj)
[49-48-44-41-40-33-24]
---------------------------------------------------------------------------------------------------------
Image
Image [25] (05)
Kasabian
bumblebeee
[30-31-28-28-25]
---------------------------------------------------------------------------------------------------------
Image
Image [26] (12)
Paolo Nutini
Let Me Down Easy
[37-10-2-1-3-4-5-8-11-16-23-26]
---------------------------------------------------------------------------------------------------------
Image
Image [27] (08)
Cat Power & Coldplay
Wish I Was Here
[10-5-7-11-19-27-25-27]
---------------------------------------------------------------------------------------------------------
Image
Image [28] (10)
Lenny Kravitz
The Chamber
[3-3-5-7-13-15-23-25-26-28]
---------------------------------------------------------------------------------------------------------
Image
Image [29] (13)
Editors
Sugar
[2-1-1-1-5-6-8-2-10-15-22-27-29]
---------------------------------------------------------------------------------------------------------
Image
Image [30] (05)
OneRepublic
Ordinary Human
[40-38-31-30-30]
---------------------------------------------------------------------------------------------------------
Image
Image [31] (02)
Echosmith
Cool Kids
[50-31]
---------------------------------------------------------------------------------------------------------
Image
Image [32] (09)
Milky Chance
Stolen Dance
[42-29-16-15-12-20-24-29-32]
---------------------------------------------------------------------------------------------------------
Image
Image [33] (02)
Foxes
Glorious
[43-33]
---------------------------------------------------------------------------------------------------------
Image
Image [34] (01)
Royal Blood
Figure It Out

[34]
---------------------------------------------------------------------------------------------------------
Image
Image [35] (05)
Kaiser Chiefs
Meanwhile Up In Heaven
[35-37-32-32-35]
---------------------------------------------------------------------------------------------------------
Image
Image [36] (05)
Nico & Vinz
Am I Wrong
[50-43-43-38-36]
---------------------------------------------------------------------------------------------------------
Image
Image [37] (03)
Counting Crows
Palisades Park
[38-36-37]
---------------------------------------------------------------------------------------------------------
Image
Image [38] (05)
Lenny Kravitz
Sex
[31-25-29-31-38]
---------------------------------------------------------------------------------------------------------
Image
Image [39] (06)
MAGIC!
Rude
[50-49-45-45-42-39]
---------------------------------------------------------------------------------------------------------
Image
Image [40] (05)
Tony Bennett & Lady Gaga
Anything Goes
[34-36-36-34-40]
---------------------------------------------------------------------------------------------------------
Image
Image [41] (01)
Tony Bennett & Lady Gaga
I Can't Give You Anything But Love

[41]
---------------------------------------------------------------------------------------------------------
Image
Image [42] (15)
Ed Sheeran
One
[4-3-5-7-9-7-7-14-18-18-22-27-30-35-42]
---------------------------------------------------------------------------------------------------------
Image
Image [43] (03)
Gavin DeGraw
Fire
[48-46-43]
---------------------------------------------------------------------------------------------------------
Image
Image [44] (15)
Sam Smith
Stay with Me
[7-2-1-4-3-6-10-13-12-17-23-29-35-40-44]
---------------------------------------------------------------------------------------------------------
Image
Image [45] (01)
Maroon 5
Animals

[45]
---------------------------------------------------------------------------------------------------------
Image
Image [46] (10)
Arctic Monkeys
Snap Out of It
[9-9-9-11-14-19-28-33-39-46]
---------------------------------------------------------------------------------------------------------
Image
Image [47] (19)
Hozier
From Eden
[10-9-11-14-18-21-24-20-21-23-23-22-23-22-21-24-34-37-47]
---------------------------------------------------------------------------------------------------------
Image
Image [48] (11)
Beyoncé
Pretty Hurts
[17-12-12-15-14-16-16-26-37-44-48]
---------------------------------------------------------------------------------------------------------
Image
Image [49] (08)
alt-J
Left Hand Free
[33-20-25-26-32-39-41-49]
---------------------------------------------------------------------------------------------------------
Image
Image [50] (20)
Paloma Faith
Only Love Can Hurt Like This
[24-17-13-10-8-4-2-1-3-2-2-4-6-12-13-19-24-33-42-47-50]
---------------------------------------------------------------------------------------------------------
OUT
---------------------------------------------------------------------------------------------------------
[45] (10)
Maroon 5
Maps
[20-18-16-18-15-20-27-35-41-45]
---------------------------------------------------------------------------------------------------------
[48] (01)
Katy Perry
This Is How We Do
[48]
---------------------------------------------------------------------------------------------------------
[49] (12)
Foster the People
Best Friend
[15-13-11-14-15-17-21-24-29-39-44-49]
---------------------------------------------------------------------------------------------------------
Last edited by LittleArsonist on Sun Oct 12, 2014 10:49 am, edited 1 time in total.
User avatar
LittleArsonist
Personal Assistant
 
Posts: 946
Joined: Wed Jan 14, 2004

Postby navi » Wed Sep 03, 2014 11:36 am

Royal blood - (new) Saviours of (dying) rock 'n' roll,
Figure it out - slowburner but great,
I'm so happy that they manage to top the UK Album chart.
Maroon 5 average/good,
Gaga and Tony, (what's the point of this) black hole.

Regarding the headline (i'm not everyone) :lol:
My year(s) in lists by Ivan (2008 - 2013)
User avatar
navi
Legend
 
Posts: 10307
Joined: Wed Aug 14, 2013
Location: Zagreb/Croatia

Postby LittleArsonist » Wed Sep 03, 2014 11:50 am

ahahha I have a weakness for old jazz classics and they are both good at it... actually Lady Gaga should only focus on this genre instead of wasting her voice on repeated-pop-tunes.

happy for Royal Blood as well! deserved.

Maroon 5...d'oh, I just listened to "V" this morning and well, the only outstanding track in it is the Marcy Playground's cover of their classic Sex And Candy [big disappointment]
User avatar
LittleArsonist
Personal Assistant
 
Posts: 946
Joined: Wed Jan 14, 2004

Postby LittleArsonist » Wed Sep 03, 2014 11:51 am

navi wrote:Regarding the headline (i'm not everyone) :lol:
:lol: we are 2 then :P
User avatar
LittleArsonist
Personal Assistant
 
Posts: 946
Joined: Wed Jan 14, 2004

Postby Tansike » Wed Sep 03, 2014 1:44 pm

Great to see Colbie's "Try" and Foxes' "Glorious" both getting a new peak this week, also nice entry for "Animals" by Maroon 5 :)
User avatar
Tansike
Legend
 
Posts: 44835
Joined: Sat Jan 28, 2012
Location: Switzerland

Postby LittleArsonist » Thu Sep 04, 2014 8:01 pm

cover
[TW] (WI)
artist
track title
[chartrun]
---------------------------------------------------------------------------------------------------------
::50 SONGS:: 36/52 :: week ending September 7 ::
---------------------------------------------------------------------------------------------------------
Image
Image [01] (04)
Sinéad O'Connor
Take Me to Church
[13-2-1-1]
---------------------------------------------------------------------------------------------------------
Image
Image [02] (07)
La Roux
Uptight Downtown
[31-28-21-18-10-3-2]
---------------------------------------------------------------------------------------------------------
Image
Image [03] (09)
Sia
Big Girls Cry
[1-1-1-1-2-3-3-4-3]
---------------------------------------------------------------------------------------------------------
Image
Image [04] (01)
HAIM
My Song 5 (Featuring A$AP Ferg)

[4]
---------------------------------------------------------------------------------------------------------
Image
Image [05] (05)
Paolo Nutini
Iron Sky
[4-1-1-2-5]
---------------------------------------------------------------------------------------------------------
Image
Image [06] (05)
Ed Sheeran
Don't
[7-4-4-6-6]
---------------------------------------------------------------------------------------------------------
Image
Image [07] (09)
First Aid Kit
My Silver Lining
[50-43-27-17-16-15-13-10-7]
---------------------------------------------------------------------------------------------------------
Image
Image [08] (07)
Colbie Caillat
Try
[26-18-18-21-19-14-8]
---------------------------------------------------------------------------------------------------------
Image
Image [09] (03)
Echosmith
Cool Kids
[50-31-9]
---------------------------------------------------------------------------------------------------------
Image
Image [10] (05)
Lana Del Rey
Ultraviolence
[22-10-7-7-10]
---------------------------------------------------------------------------------------------------------
Image
Image [11] (11)
alt-J
Hunger of the Pine
[11-8-8-10-12-3-3-5-6-5-11]
---------------------------------------------------------------------------------------------------------
Image
Image [12] (07)
Interpol
All the Rage Back Home
[29-20-17-17-15-12-12]
---------------------------------------------------------------------------------------------------------
Image
Image [13] (10)
Hozier
Sedated
[4-2-2-4-5-5-6-8-11-13]
---------------------------------------------------------------------------------------------------------
Image
Image [14] (03)
George Ezra
Blame It on Me
[22-18-14]
---------------------------------------------------------------------------------------------------------
Image
Image [15] (08)
Tove Lo
Habits
[17-11-9-14-20-20-19-15]
---------------------------------------------------------------------------------------------------------
Image
Image [16] (07)
Bastille
Oblivion
[21-2-1-2-5-8-16]
---------------------------------------------------------------------------------------------------------
Image
Image [17] (05)
Coldplay
True Love
[10-9-11-9-17]
---------------------------------------------------------------------------------------------------------
Image
Image [18] (02)
Royal Blood
Figure It Out
[34-18]
---------------------------------------------------------------------------------------------------------
Image
Image [19] (07)
Sam Smith
I'm Not the Only One
[9-7-9-7-9-13-19]
---------------------------------------------------------------------------------------------------------
Image
Image [20] (03)
Foxes
Glorious
[43-33-20]
---------------------------------------------------------------------------------------------------------
Image
Image [21] (10)
Christina Perri
Burning Gold
[28-11-9-8-14-13-14-18-15-21]
---------------------------------------------------------------------------------------------------------
Image
Image [22] (09)
LP
Night Like This
[45-38-30-25-30-26-24-20-22]
---------------------------------------------------------------------------------------------------------
Image
Image [23] (07)
Banks
Beggin' For Thread
[6-4-6-8-12-16-23]
---------------------------------------------------------------------------------------------------------
Image
Image [24] (10)
Paloma Faith
Trouble with My Baby
[11-7-6-10-13-12-12-14-17-24]
---------------------------------------------------------------------------------------------------------
Image
Image [25] (07)[/size
The Script
Superheroes
[size=2][49-33-34-23-21-22-25]

---------------------------------------------------------------------------------------------------------
Image
Image [26] (08)
Usher
She Came To Give It To You (featuring Nicki Minaj)
[49-48-44-41-40-33-24-26]
---------------------------------------------------------------------------------------------------------
Image
Image [27] (11)
George Ezra
Budapest
[5-2-4-3-3-6-8-11-17-23-27]
---------------------------------------------------------------------------------------------------------
Image
Image [28] (06)
Kasabian
bumblebeee
[30-31-28-28-25-28]
---------------------------------------------------------------------------------------------------------
Image
Image [29] (11)
Lenny Kravitz
The Chamber
[3-3-5-7-13-15-23-25-26-28-29]
---------------------------------------------------------------------------------------------------------
Image
Image [30] (04)
Maroon 5
It Was Always You
[19-16-21-30]
---------------------------------------------------------------------------------------------------------
Image
Image [31] (13)
Paolo Nutini
Let Me Down Easy
[37-10-2-1-3-4-5-8-11-16-23-26-31]
---------------------------------------------------------------------------------------------------------
Image
Image [32] (06)
Kaiser Chiefs
Meanwhile Up In Heaven
[35-37-32-32-35-32]
---------------------------------------------------------------------------------------------------------
Image
Image [33] (06)
OneRepublic
Ordinary Human
[40-38-31-30-30-33]
---------------------------------------------------------------------------------------------------------
Image
Image [34] (09)
Cat Power & Coldplay
Wish I Was Here
[10-5-7-11-19-27-25-27-34]
---------------------------------------------------------------------------------------------------------
Image
Image [35] (14)
Editors
Sugar
[2-1-1-1-5-6-8-2-10-15-22-27-29-35]
---------------------------------------------------------------------------------------------------------
Image
Image [36] (04)
Gavin DeGraw
Fire
[48-46-43-36]
---------------------------------------------------------------------------------------------------------
Image
Image [37] (04)
Counting Crows
Palisades Park
[38-36-37-37]
---------------------------------------------------------------------------------------------------------
Image
Image [38] (10)
Milky Chance
Stolen Dance
[42-29-16-15-12-20-24-29-32-38]
---------------------------------------------------------------------------------------------------------
Image
Image [39] (06)
Nico & Vinz
Am I Wrong
[50-43-43-38-36-39]
---------------------------------------------------------------------------------------------------------
Image
Image [40] (11)
Arctic Monkeys
Snap Out of It
[9-9-9-11-14-19-28-33-39-46-40]
---------------------------------------------------------------------------------------------------------
Image
Image [41] (16)
Ed Sheeran
One
[4-3-5-7-9-7-7-14-18-18-22-27-30-35-42-41]
---------------------------------------------------------------------------------------------------------
Image
Image [42] (02)
Maroon 5
Animals
[45-42]
---------------------------------------------------------------------------------------------------------
Image
Image [43] (07)
MAGIC!
Rude
[50-49-45-45-42-39-43]
---------------------------------------------------------------------------------------------------------
Image
Image [44] (06)
Lenny Kravitz
Sex
[31-25-29-31-38-44]
---------------------------------------------------------------------------------------------------------
Image
Image [45] (09)
alt-J
Left Hand Free
[33-20-25-26-32-39-41-49-45]
---------------------------------------------------------------------------------------------------------
Image
Image [46] (16)
Sam Smith
Stay with Me
[7-2-1-4-3-6-10-13-12-17-23-29-35-40-44-46]
---------------------------------------------------------------------------------------------------------
Image
Image [47] (20)
Hozier
From Eden
[10-9-11-14-18-21-24-20-21-23-23-22-23-22-21-24-34-37-47-47]
---------------------------------------------------------------------------------------------------------
Image
Image [48] (01)
The 1975
Heart Out

[48]
---------------------------------------------------------------------------------------------------------
Image
Image [49] (06)
Tony Bennett & Lady Gaga
Anything Goes
[34-36-36-34-40-49]
---------------------------------------------------------------------------------------------------------
Image
Image [50] (01)
Indiana
Heart On Fire

[50]
---------------------------------------------------------------------------------------------------------
OUT
---------------------------------------------------------------------------------------------------------
[41] (01)
Tony Bennett & Lady Gaga
I Can't Give You Anything But Love
[41]
---------------------------------------------------------------------------------------------------------
[48] (11)
Beyoncé
Pretty Hurts
[17-12-12-15-14-16-16-26-37-44-48]
---------------------------------------------------------------------------------------------------------
[50] (20)
Paloma Faith
Only Love Can Hurt Like This
[24-17-13-10-8-4-2-1-3-2-2-4-6-12-13-19-24-33-42-47-50]
---------------------------------------------------------------------------------------------------------
Last edited by LittleArsonist on Sun Oct 12, 2014 10:50 am, edited 1 time in total.
User avatar
LittleArsonist
Personal Assistant
 
Posts: 946
Joined: Wed Jan 14, 2004

Postby navi » Tue Sep 09, 2014 10:21 am

:D
Last edited by navi on Thu Sep 11, 2014 6:36 am, edited 2 times in total.
My year(s) in lists by Ivan (2008 - 2013)
User avatar
navi
Legend
 
Posts: 10307
Joined: Wed Aug 14, 2013
Location: Zagreb/Croatia

Postby navi » Tue Sep 09, 2014 10:21 am

3 new entries, all good.
(and just that, neither one great or awesome)
Haim - i like them more with guitars.
the 1975 - are they gonna lifted all the songs from his debut as a singles?,
Sex stays for me as their best.
Indiana - like opening first minute of the song, after that it becomes musicaly pretty average.
My year(s) in lists by Ivan (2008 - 2013)
User avatar
navi
Legend
 
Posts: 10307
Joined: Wed Aug 14, 2013
Location: Zagreb/Croatia

Postby Tansike » Wed Sep 10, 2014 1:32 pm

Glad to see Colbie finally reaching the Top10 :D
User avatar
Tansike
Legend
 
Posts: 44835
Joined: Sat Jan 28, 2012
Location: Switzerland

Postby LittleArsonist » Thu Sep 11, 2014 1:34 pm

cover
[TW] (WI)
artist
track title
[chartrun]
---------------------------------------------------------------------------------------------------------
::50 SONGS:: 37/52 :: week ending September 14 ::
---------------------------------------------------------------------------------------------------------
Image
Image [01] (01)
You+Me
You and Me

[1]
---------------------------------------------------------------------------------------------------------
Image
Image [02] (01)
Damien Rice
My Favourite Faded Fantasy

[2]
---------------------------------------------------------------------------------------------------------
Image
Image [03] (05)
Sinéad O'Connor
Take Me to Church
[13-2-1-1-3]
---------------------------------------------------------------------------------------------------------
Image
Image [04] (08)
La Roux
Uptight Downtown
[31-28-21-18-10-3-2-4]
---------------------------------------------------------------------------------------------------------
Image
Image [05] (10)
Sia
Big Girls Cry
[1-1-1-1-2-3-3-4-3-5]
---------------------------------------------------------------------------------------------------------
Image
Image [06] (04)
Echosmith
Cool Kids
[50-31-9-6]
---------------------------------------------------------------------------------------------------------
Image
Image [07] (08)
Colbie Caillat
Try
[26-18-18-21-19-14-8-7]
---------------------------------------------------------------------------------------------------------
Image
Image [08] (06)
Paolo Nutini
Iron Sky
[4-1-1-2-5-8]
---------------------------------------------------------------------------------------------------------
Image
Image [09] (06)
Ed Sheeran
Don't
[7-4-4-6-6-9]
---------------------------------------------------------------------------------------------------------
Image
Image [10] (02)
HAIM
My Song 5 (Featuring A$AP Ferg)
[4-10]
---------------------------------------------------------------------------------------------------------
Image
Image [11] (10)
First Aid Kit
My Silver Lining
[50-43-27-17-16-15-13-10-7-11]
---------------------------------------------------------------------------------------------------------
Image
Image [12] (04)
George Ezra
Blame It on Me
[22-18-14-12]
---------------------------------------------------------------------------------------------------------
Image
Interpol
All the Rage Back Home
[29-20-17-17-15-12-12-13]
---------------------------------------------------------------------------------------------------------
Image
Image [14] (06)
Lana Del Rey
Ultraviolence
[22-10-7-7-10-14]
---------------------------------------------------------------------------------------------------------
Image
Image [15] (03)
Royal Blood
Figure It Out
[34-18-15]
---------------------------------------------------------------------------------------------------------
Image
Image [16] (12)
alt-J
Hunger of the Pine
[11-8-8-10-12-3-3-5-6-5-11-16]
---------------------------------------------------------------------------------------------------------
Image
Image [17] (11)
Hozier
Sedated
[4-2-2-4-5-5-6-8-11-13-17]
---------------------------------------------------------------------------------------------------------
Image
Image [18] (09)
Tove Lo
Habits
[17-11-9-14-20-20-19-15-18]
---------------------------------------------------------------------------------------------------------
Image
Image [19] (04)
Foxes
Glorious
[43-33-20-19]
---------------------------------------------------------------------------------------------------------
Image
Image [20] (08)
Bastille
Oblivion
[21-2-1-2-5-8-16-20]
---------------------------------------------------------------------------------------------------------
Image
Image [21] (10)
Christina Perri
Burning Gold
[28-11-9-8-14-13-14-18-15-21-21]
---------------------------------------------------------------------------------------------------------
Image
Image [22] (09)
LP
Night Like This
[45-38-30-25-30-26-24-20-22-22]
---------------------------------------------------------------------------------------------------------
Image
Image [23] (06)
Coldplay
True Love
[10-9-11-9-17-23]
---------------------------------------------------------------------------------------------------------
Image
Image [24] (08)
Banks
Beggin' For Thread
[6-4-6-8-12-16-23-24]
---------------------------------------------------------------------------------------------------------
Image
Image [25] (08)
Sam Smith
I'm Not the Only One
[9-7-9-7-9-13-19-25]
---------------------------------------------------------------------------------------------------------
Image
Image [26] (08)
The Script
Superheroes
[49-33-34-23-21-22-25-26]
---------------------------------------------------------------------------------------------------------
Image
Image [27] (09)
Usher
She Came To Give It To You (featuring Nicki Minaj)
[49-48-44-41-40-33-24-26-27]
---------------------------------------------------------------------------------------------------------
Image
Image [28] (11)
Paloma Faith
Trouble with My Baby
[11-7-6-10-13-12-12-14-17-24-28]
---------------------------------------------------------------------------------------------------------
Image
Image [29] (12)
Lenny Kravitz
The Chamber
[3-3-5-7-13-15-23-25-26-28-29-29]
---------------------------------------------------------------------------------------------------------
Image
Image [30] (07)
Kaiser Chiefs
Meanwhile Up In Heaven
[35-37-32-32-35-32-30]
---------------------------------------------------------------------------------------------------------
Image
Image [31] (07)
Kasabian
Bumblebeee
[30-31-28-28-25-28-31]
---------------------------------------------------------------------------------------------------------
Image
Image [32] (12)
George Ezra
Budapest
[5-2-4-3-3-6-8-11-17-23-27-32]
---------------------------------------------------------------------------------------------------------
Image
Image [33] (07)
OneRepublic
Ordinary Human
[40-38-31-30-30-33-33]
---------------------------------------------------------------------------------------------------------
Image
Image [34] (05)
Maroon 5
It Was Always You
[19-16-21-30-34]
---------------------------------------------------------------------------------------------------------
Image
Image [35] (01)
The Kooks
Forgive & Forget

[35]
---------------------------------------------------------------------------------------------------------
Image
Image [36] (05)
Gavin DeGraw
Fire
[48-46-43-36-36]
---------------------------------------------------------------------------------------------------------
Image
Image [37] (01)
alt-J
Every Other Freckle

[37]
---------------------------------------------------------------------------------------------------------
Image
Image [38] (12)
Arctic Monkeys
Snap Out of It
[9-9-9-11-14-19-28-33-39-46-40-38]
---------------------------------------------------------------------------------------------------------
Image
Image [39] (14)
Paolo Nutini
Let Me Down Easy
[37-10-2-1-3-4-5-8-11-16-23-26-31-39]
---------------------------------------------------------------------------------------------------------
Image
Image [40] (05)
Counting Crows
Palisades Park
[38-36-37-37-40]
---------------------------------------------------------------------------------------------------------
Image
Image [41] (15)
Editors
Sugar
[2-1-1-1-5-6-8-2-10-15-22-27-29-35-41]
---------------------------------------------------------------------------------------------------------
Image
Image [42] (10)
alt-J
Left Hand Free
[33-20-25-26-32-39-41-49-45-42]
---------------------------------------------------------------------------------------------------------
Image
Image [43] (07)
Nico & Vinz
Am I Wrong
[50-43-43-38-36-39-43]
---------------------------------------------------------------------------------------------------------
Image
Image [44] (10)
Cat Power & Coldplay
Wish I Was Here
[10-5-7-11-19-27-25-27-34-44]
---------------------------------------------------------------------------------------------------------
Image
Image [45] (02)
Indiana
Heart On Fire
[50-45]
---------------------------------------------------------------------------------------------------------
Image
Image [46] (11)
Milky Chance
Stolen Dance
[42-29-16-15-12-20-24-29-32-38-46]
---------------------------------------------------------------------------------------------------------
Image
Image [47] (17)
Ed Sheeran
One
[4-3-5-7-9-7-7-14-18-18-22-27-30-35-42-41-47]
---------------------------------------------------------------------------------------------------------
Image
Image [48] (03)
Maroon 5
Animals
[45-42-48]
---------------------------------------------------------------------------------------------------------
Image
Image [49] (17)
Sam Smith
Stay with Me
[7-2-1-4-3-6-10-13-12-17-23-29-35-40-44-46-49]
---------------------------------------------------------------------------------------------------------
Image
Image [50] (08)
Magic!
Rude
[50-49-45-45-42-39-43-50]
---------------------------------------------------------------------------------------------------------
OUT
---------------------------------------------------------------------------------------------------------
[44] (06)
Lenny Kravitz
Sex
[31-25-29-31-38-44]
---------------------------------------------------------------------------------------------------------
[47] (20)
Hozier
From Eden
[10-9-11-14-18-21-24-20-21-23-23-22-23-22-21-24-34-37-47-47]
---------------------------------------------------------------------------------------------------------
[48] (01)
The 1975
Heart Out
[48]
---------------------------------------------------------------------------------------------------------
[49] (06)
Tony Bennett & Lady Gaga
Anything Goes
[34-36-36-34-40-49]
---------------------------------------------------------------------------------------------------------
Last edited by LittleArsonist on Sun Oct 12, 2014 10:50 am, edited 1 time in total.
User avatar
LittleArsonist
Personal Assistant
 
Posts: 946
Joined: Wed Jan 14, 2004

Return to Personal Charts