50:иgѕ w/e December 16 - the closest

Moderators: JSparksFan, tdc2000, FreakyFlyBry

 

Postby LittleArsonist » Fri Mar 27, 2015 6:33 pm

cover
[TW] (WI)
artist
track title
[chartrun]
---------------------------------------------------------------------------------------------------------
50:NGS (13/52) - week ending March 29
Follow my playlist in SPOTIFY!!
---------------------------------------------------------------------------------------------------------
Image
Image [01] (09)
James Bay
Hold Back the River
[7-5-3-3-2-3-5-4-1]
---------------------------------------------------------------------------------------------------------
Image
Image [02] (03)
Mumford & Sons
Believe
[1-1-2]
---------------------------------------------------------------------------------------------------------
Image
Image [03] (04)
Madonna
Ghosttown
[4-2-2-3]
---------------------------------------------------------------------------------------------------------
Image
Image [04] (03)
Muse
Psycho
[36-20-4]
---------------------------------------------------------------------------------------------------------
Image
Image [05] (01)
Florence + the Machine
St Jude

[5]
---------------------------------------------------------------------------------------------------------
Image
Image [06] (07)
Florence + the Machine
What Kind of Man
[1-1-3-2-7-6-6]
---------------------------------------------------------------------------------------------------------
Image
Image [07] (03)
Hozier
Someone New
[4-3-7]
---------------------------------------------------------------------------------------------------------
Image
Image [08] (12)
Ellie Goulding
Love Me Like You Do
[24-17-5-2-1-2-2-1-1-3-5-8]
---------------------------------------------------------------------------------------------------------
Image
Image [09] (11)
James Bay
Scars
[1-1-1-2-7-9-10-12-15-14-9]
---------------------------------------------------------------------------------------------------------
Image
Image [10] (11)
Kelly Clarkson
Heartbeat Song
[50-45-44-34-33-28-31-5-6-7-10]
---------------------------------------------------------------------------------------------------------
Image
Image [11] (05)
Ed Sheeran & Rudimental
Bloodstream
[4-8-14-11-11]
---------------------------------------------------------------------------------------------------------
Image
Image [12] (07)
Imagine Dragons
Shots
[27-8-7-6-9-9-12]
---------------------------------------------------------------------------------------------------------
Image
Image [13] (11)
Maroon 5
Sugar
[36-20-18-19-24-30-35-17-11-8-13]
---------------------------------------------------------------------------------------------------------
Image
Image [14] (04)
Kodaline
The One
[11-10-12-14]
---------------------------------------------------------------------------------------------------------
Image
Image [15] (08)
Sam Smith
Lay Me Down
[40-40-34-20-9-13-10-15]
---------------------------------------------------------------------------------------------------------
Image
Image [16] (02)
Of Monsters and Men
Crystals
[39-16]
---------------------------------------------------------------------------------------------------------
Image
Image [17] (08)
Royal Blood
Out of the Black
[20-9-5-6-10-8-13-17]
---------------------------------------------------------------------------------------------------------
Image
Image [18] (04)
Noel Gallagher's High Flying Birds
Ballad of the Mighty I
[48-40-19-18]
---------------------------------------------------------------------------------------------------------
Image
Image [19] (02)
Hot Chip
Huarache Lights
[33-19]
---------------------------------------------------------------------------------------------------------
Image
Image [20] (05)
Foo Fighters
Congregation
[44-41-39-28-20]
---------------------------------------------------------------------------------------------------------
Image
Image [21] (12)
Ed Sheeran
Photograph
[12-11-4-4-4-5-6-8-13-16-18-21]
---------------------------------------------------------------------------------------------------------
Image
Image [22] (10)
Common & John Legend
Glory
[46-42-14-8-4-5-7-12-16-22]
---------------------------------------------------------------------------------------------------------
Image
Image [23] (09)
Rihanna, Kanye West & Paul McCartney
FourFiveSeconds
[49-36-34-15-12-22-25-17-23]
---------------------------------------------------------------------------------------------------------
Image
Image [24] (05)
Blur
Go Out
[46-38-32-25-24]
---------------------------------------------------------------------------------------------------------
Image
Image [25] (06)
Annie Lennox
I Put a Spell on You
[50-45-40-35-31-25]
---------------------------------------------------------------------------------------------------------
Image
Image [26] (13)
Madonna
Living for Love
[10-10-9-13-15-3-6-10-17-16-18-15-26]
---------------------------------------------------------------------------------------------------------
Image
Image [27] (13)
The Weeknd
Earned It (Fifty Shades of Grey)
[20-14-12-12-9-9-11-11-14-19-19-23-27]
---------------------------------------------------------------------------------------------------------
Image
Image [28] (05)
Marina & the Diamonds
I'm a Ruin
[39-35-26-24-28]
---------------------------------------------------------------------------------------------------------
Image
Image [29] (10)
Imagine Dragons
Gold
[34-24-22-21-19-13-15-17-21-29]
---------------------------------------------------------------------------------------------------------
Image
Image [30] (11)
Imagine Dragons
Gold
[41-35-30-28-28-20-18-23-22-22-30]
---------------------------------------------------------------------------------------------------------
Image
Image [31] (07)
Kaiser Chiefs
Falling Awake
[38-37-34-32-28-27-31]
---------------------------------------------------------------------------------------------------------
Image
Image [32] (08)
Death Cab for Cutie
Black Sun
[46-46-36-28-25-30-40-32]
---------------------------------------------------------------------------------------------------------
Image
Image [33] (11)
Sia
Elastic Heart
[10-9-6-10-14-16-15-20-20-26-33]
---------------------------------------------------------------------------------------------------------
Image
Image [34] (15)
Kodaline
Honest
[19-10-9-8-13-16-19-23-18-21-23-24-27-36-34]
---------------------------------------------------------------------------------------------------------
Image
Image [35] (18)
Mark Ronson
Uptown Funk (featuring Bruno Mars)
[50-35-30-29-28-24-18-18-11-8-8-12-14-9-18-24-30-35]
---------------------------------------------------------------------------------------------------------
Image
Image [36] (07)
Incubus
Absolution Calling
[44-39-32-34-37-41-36]
---------------------------------------------------------------------------------------------------------
Image
Image [37] (11)
Belle and Sebastian
Nobody's Empire
[48-43-38-35-31-31-22-26-29-34-37]
---------------------------------------------------------------------------------------------------------
Image
Image [38] (01)
Brandon Flowers
Can't Deny My Love

[38]
---------------------------------------------------------------------------------------------------------
Image
Image [39] (05)
Calvin Harris
Pray to God (featuring HAIM)
[42-44-42-42-39]
---------------------------------------------------------------------------------------------------------
Image
Image [40] (02)
AWOLNATION
Hollow Moon (Bad Wolf)
[48-40]
---------------------------------------------------------------------------------------------------------
Image
Image [41] (15)
Coldplay
Miracles
[8-1-1-1-2-2-3-6-10-13-16-21-23-29-41]
---------------------------------------------------------------------------------------------------------
Image
Image [42] (09)
The Vaccines
Handsome
[36-16-16-18-21-28-34-37-42]
---------------------------------------------------------------------------------------------------------
Image
Image [43] (02)
The Wombats
Greek Tragedy
[46-43]
---------------------------------------------------------------------------------------------------------
Image
Image [44] (20)
Imagine Dragons
I Bet My Life
[41-41-44-48-47-45-40-37-35-32-17-10-7-4-7-11-14-21-32-44]
---------------------------------------------------------------------------------------------------------
Image
Image [45] (03)
Paloma Faith
Beauty Remains
[33-35-45]
--------------------------------------------------------------------------------------------------------
Image
Image [46] (10)
Interpol
Everything Is Wrong
[31-31-29-29-25-27-27-31-38-46]
---------------------------------------------------------------------------------------------------------
Image
Image [47] (13)
Modest Mouse
Lampshades on Fire
[45-41-39-36-35-38-42-42-43-47-49-47-47]
---------------------------------------------------------------------------------------------------------
Image
Image [48] (09)
The Decemberists
Make You Better
[46-44-37-33-33-36-43-44-48]
---------------------------------------------------------------------------------------------------------
Image
Image [49] (01)
Rihanna
Bitch Better Have My Money

[49]
---------------------------------------------------------------------------------------------------------
Image
Image [50] (01)
Kendrick Lamar
The Blacker the Berry

[50]
---------------------------------------------------------------------------------------------------------
OUT
---------------------------------------------------------------------------------------------------------
[43] (03)
Kanye West
All Day (featuring Theophilus London, Allan Kingdom & Paul McCartney)
[49-45-43]
---------------------------------------------------------------------------------------------------------
[45] (12)
Marina & the Diamonds
Happy
[8-5-5-10-13-12-17-22-25-31-38-45]
---------------------------------------------------------------------------------------------------------
[49] (10)
Curtis Harding
Keep On Shining
[3-3-11-15-15-12-19-33-41-49]
---------------------------------------------------------------------------------------------------------
[50] (15)
Ed Sheeran
Make It Rain
[5-4-3-2-2-4-8-16-18-20-27-30-39-46-50]
---------------------------------------------------------------------------------------------------------
User avatar
LittleArsonist
Personal Assistant
 
Posts: 955
Joined: Wed Jan 14, 2004

Postby Tansike » Wed Apr 01, 2015 10:43 am

Good number one, his album is pretty good :)

Also love to see the success for Madonna's "Ghosttown" & lots of other great songs on your charts, as always :D

Not surprised about the low entry for Rihanna's new single It's probably her weakest release ever :(
User avatar
Tansike
Legend
 
Posts: 45421
Joined: Sat Jan 28, 2012
Location: Switzerland

Postby LittleArsonist » Fri Apr 03, 2015 3:43 pm

Tansike wrote:Good number one, his album is pretty good :)
definitely! :o

Also love to see the success for Madonna's "Ghosttown" & lots of other great songs on your charts, as always :D

Not surprised about the low entry for Rihanna's new single It's probably her weakest release ever :(
thanks mate! :D :wink:

yep, one of her weakest ones ever...and as you'll see already OUT of my top 50 this week :lol:
User avatar
LittleArsonist
Personal Assistant
 
Posts: 955
Joined: Wed Jan 14, 2004

Postby LittleArsonist » Fri Apr 03, 2015 4:02 pm

cover
[TW] (WI)
artist
track title
[chartrun]
---------------------------------------------------------------------------------------------------------
50:NGS (14/52) - week ending April 5
Follow my playlist in SPOTIFY!!
---------------------------------------------------------------------------------------------------------
Image
Image [01] (10)
James Bay
Hold Back the River
[7-5-3-3-2-3-5-4-1-1]
---------------------------------------------------------------------------------------------------------
Image
Image [02] (04)
Muse
Psycho
[36-20-4-2]
---------------------------------------------------------------------------------------------------------
Image
Image [03] (05)
Madonna
Ghosttown
[4-2-2-3-3]
---------------------------------------------------------------------------------------------------------
Image
Image [04] (04)
Mumford & Sons
Believe
[1-1-2-4]
---------------------------------------------------------------------------------------------------------
Image
Image [05] (04)
Hozier
Someone New
[4-3-7-5]
---------------------------------------------------------------------------------------------------------
Image
Image [06] (08)
Imagine Dragons
Shots
[27-8-7-6-9-9-12-6]
---------------------------------------------------------------------------------------------------------
Image
Image [07] (13)
Ellie Goulding
Love Me Like You Do
[24-17-5-2-1-2-2-1-1-3-5-8-7]
---------------------------------------------------------------------------------------------------------
Image
Image [08] (05)
Kodaline
The One
[11-10-12-14-8]
---------------------------------------------------------------------------------------------------------
Image
Image [09] (03)
Of Monsters and Men
Crystals
[39-16-9]
---------------------------------------------------------------------------------------------------------
Image
Image [10] (08)
Florence + the Machine
What Kind of Man
[1-1-3-2-7-6-6-10]
---------------------------------------------------------------------------------------------------------
Image
Image [11] (12)
James Bay
Scars
[1-1-1-2-7-9-10-12-15-14-9-11]
---------------------------------------------------------------------------------------------------------
Image
Image [12] (02)
Florence + the Machine
St Jude
[5-12]
---------------------------------------------------------------------------------------------------------
Image
Image [13] (05)
Noel Gallagher's High Flying Birds
Ballad of the Mighty I
[48-40-19-18-13]
---------------------------------------------------------------------------------------------------------
Image
Image [14] (12)
Kelly Clarkson
Heartbeat Song
[50-45-44-34-33-28-31-5-6-7-10-14]
---------------------------------------------------------------------------------------------------------
Image
Image [15] (03)
Hot Chip
Huarache Lights
[33-19-15]
---------------------------------------------------------------------------------------------------------
Image
Image [16] (06)
Ed Sheeran & Rudimental
Bloodstream
[4-8-14-11-11-16]
---------------------------------------------------------------------------------------------------------
Image
Image [17] (12)
Maroon 5
Sugar
[36-20-18-19-24-30-35-17-11-8-13-17]
---------------------------------------------------------------------------------------------------------
Image
Image [18] (06)
Foo Fighters
Congregation
[44-41-39-28-20-18]
---------------------------------------------------------------------------------------------------------
Image
Image [19] (09)
Sam Smith
Lay Me Down
[40-40-34-20-9-13-10-15-19]
---------------------------------------------------------------------------------------------------------
Image
Image [20] (03)
AWOLNATION
Hollow Moon (Bad Wolf)
[48-40-20]
---------------------------------------------------------------------------------------------------------
Image
Image [21] (01)
Muse
Dead Inside

[21]
---------------------------------------------------------------------------------------------------------
Image
Image [22] (09)
Royal Blood
Out of the Black
[20-9-5-6-10-8-13-17-22]
---------------------------------------------------------------------------------------------------------
Image
Image [23] (07)
Annie Lennox
I Put a Spell on You
[50-45-40-35-31-25-23]
---------------------------------------------------------------------------------------------------------
Image
Image [24] (11)
Common & John Legend
Glory
[46-42-14-8-4-5-7-12-16-22-24]
---------------------------------------------------------------------------------------------------------
Image
Image [25] (13)
Ed Sheeran
Photograph
[12-11-4-4-4-5-6-8-13-16-18-21-25]
---------------------------------------------------------------------------------------------------------
Image
Image [26] (06)
Marina & the Diamonds
I'm a Ruin
[39-35-26-24-28-26]
---------------------------------------------------------------------------------------------------------
Image
Image [27] (09)
Death Cab for Cutie
Black Sun
[46-46-36-28-25-30-40-32-27]
---------------------------------------------------------------------------------------------------------
Image
Image [28] (06)
Blur
Go Out
[46-38-32-25-24-28]
---------------------------------------------------------------------------------------------------------
Image
Image [29] (11)
Imagine Dragons
Gold
[34-24-22-21-19-13-15-17-21-29-29]
---------------------------------------------------------------------------------------------------------
Image
Image [30] (08)
Kaiser Chiefs
Falling Awake
[38-37-34-32-28-27-31-30]
---------------------------------------------------------------------------------------------------------
Image
Image [31] (14)
The Weeknd
Earned It (Fifty Shades of Grey)
[20-14-12-12-9-9-11-11-14-19-19-23-27-31]
---------------------------------------------------------------------------------------------------------
Image
Image [32] (02)
Brandon Flowers
Can't Deny My Love
[38-32]
---------------------------------------------------------------------------------------------------------
Image
Image [33] (10)
Rihanna, Kanye West & Paul McCartney
FourFiveSeconds
[49-36-34-15-12-22-25-17-23-33]
---------------------------------------------------------------------------------------------------------
Image
Image [34] (06)
Calvin Harris
Pray to God (featuring HAIM)
[42-44-42-42-39-34]
---------------------------------------------------------------------------------------------------------
Image
Image [35] (08)
Incubus
Absolution Calling
[44-39-32-34-37-41-36-35]
---------------------------------------------------------------------------------------------------------
Image
Image [36] (12)
Sia
Elastic Heart
[10-9-6-10-14-16-15-20-20-26-33-36]
---------------------------------------------------------------------------------------------------------
Image
Image [37] (13)
Marina & the Diamonds
Happy

[8-5-5-10-13-12-17-22-25-31-38-45 // 37]
---------------------------------------------------------------------------------------------------------
Image
Image [38] (12)
KONGOS
I Want to Know
[41-35-30-28-28-20-18-23-22-22-30-38]
---------------------------------------------------------------------------------------------------------
Image
Image [39] (03)
The Wombats
Greek Tragedy
[46-43-39]
---------------------------------------------------------------------------------------------------------
Image
Image [40] (16)
Kodaline
Honest
[19-10-9-8-13-16-19-23-18-21-23-24-27-36-34-40]
---------------------------------------------------------------------------------------------------------
Image
Image [41] (14)
Madonna
Living for Love
[10-10-9-13-15-3-6-10-17-16-18-15-26-41]
---------------------------------------------------------------------------------------------------------
Image
Image [42] (12)
Belle and Sebastian
Nobody's Empire
[48-43-38-35-31-31-22-26-29-34-37-42]
---------------------------------------------------------------------------------------------------------
Image
Image [43] (04)
Paloma Faith
Beauty Remains
[33-35-45-43]
--------------------------------------------------------------------------------------------------------
Image
Image [44] (01)
Marina & the Diamonds
Forget

[44]
---------------------------------------------------------------------------------------------------------
Image
Image [45] (19)
Mark Ronson
Uptown Funk (featuring Bruno Mars)
[50-35-30-29-28-24-18-18-11-8-8-12-14-9-18-24-30-35-45]
--------------------------------------------------------------------------------------------------------
Image
Image [46] (01)
Echosmith
Bright

[46]
---------------------------------------------------------------------------------------------------------
Image
Image [47] (16)
Coldplay
Miracles
[8-1-1-1-2-2-3-6-10-13-16-21-23-29-41-47]
--------------------------------------------------------------------------------------------------------
Image
Image [48] (02)
Kendrick Lamar
The Blacker the Berry
[50-48]
--------------------------------------------------------------------------------------------------------
Image
Image [49] (01)
Iggy Azalea
Trouble (featuring Jennifer Hudson)

[49]
--------------------------------------------------------------------------------------------------------
Image
Image [50] (01)
Little Big Town
Girl Crush

[50]
---------------------------------------------------------------------------------------------------------
OUT
---------------------------------------------------------------------------------------------------------
[42] (09)
The Vaccines
Handsome
[36-16-16-18-21-28-34-37-42]
---------------------------------------------------------------------------------------------------------
[44] (20)
Imagine Dragons
I Bet My Life
[41-41-44-48-47-45-40-37-35-32-17-10-7-4-7-11-14-21-32-44]
---------------------------------------------------------------------------------------------------------
[46] (10)
Interpol
Everything Is Wrong
[31-31-29-29-25-27-27-31-38-46]
---------------------------------------------------------------------------------------------------------
[47] (13)
Modest Mouse
Lampshades on Fire
[45-41-39-36-35-38-42-42-43-47-49-47-47]
---------------------------------------------------------------------------------------------------------
[48] (09)
The Decemberists
Make You Better
[46-44-37-33-33-36-43-44-48]
---------------------------------------------------------------------------------------------------------
[49] (01)
Rihanna
Bitch Better Have My Money
[49]
---------------------------------------------------------------------------------------------------------
User avatar
LittleArsonist
Personal Assistant
 
Posts: 955
Joined: Wed Jan 14, 2004

Postby navi » Sat Apr 04, 2015 10:13 am

LittleArsonist wrote:
Also love to see the success for Madonna's "Ghosttown" & lots of other great songs on your charts, as always :D

Not surprised about the low entry for Rihanna's new single It's probably her weakest release ever :(
thanks mate! :D :wink:

yep, one of her weakest ones ever...and as you'll see already OUT of my top 50 this week :lol:
Wonder, why do you even charted this ... garbage :roll:

Hail to this week new entries by Muse and Echosmith.
Marina and Little big town ain't bad either.
Iggy is not my thing
(oh, yeah it is, that punk) :lol:
My year(s) in lists by Ivan (2008 - 2013)
User avatar
navi
Legend
 
Posts: 10470
Joined: Wed Aug 14, 2013
Location: Zagreb/Croatia

Postby Tansike » Fri Apr 10, 2015 10:57 am

Great entry for Marina's "Forget" - it's one of my faves of the album :D
User avatar
Tansike
Legend
 
Posts: 45421
Joined: Sat Jan 28, 2012
Location: Switzerland

Postby LittleArsonist » Fri Apr 10, 2015 6:03 pm

navi wrote:Wonder, why do you even charted this ... garbage :roll:
got it, no Paloma Faith, no Sia and no Rihanna for navi :lol: :lol: :lol:

Hail to this week new entries by Muse and Echosmith.
Marina and Little big town ain't bad either.
Iggy is not my thing
(oh, yeah it is, that punk) :lol:
LOL! I adore Jennifer Hudson's voice... this is the first time a track from Iggy Azalea charts in my top 50 :P
User avatar
LittleArsonist
Personal Assistant
 
Posts: 955
Joined: Wed Jan 14, 2004

Postby LittleArsonist » Fri Apr 10, 2015 6:04 pm

Tansike wrote:Great entry for Marina's "Forget" - it's one of my faves of the album :D
:o yep..and Happy re-entered too.

The whole album is very good!
User avatar
LittleArsonist
Personal Assistant
 
Posts: 955
Joined: Wed Jan 14, 2004

Postby LittleArsonist » Fri Apr 10, 2015 6:14 pm

cover
[TW] (WI)
artist
track title
[chartrun]
---------------------------------------------------------------------------------------------------------
50:NGS (15/52) - week ending April 12
Follow my playlist in SPOTIFY!!
---------------------------------------------------------------------------------------------------------
Image
Image [01] (06)
Madonna
Ghosttown
[4-2-2-3-3-1]
--------------------------------------------------------------------------------------------------------
Image
Image [02] (01)
Florence + the Machine
Ship to Wreck

[2]
---------------------------------------------------------------------------------------------------------
Image
Image [03] (11)
James Bay
Hold Back the River
[7-5-3-3-2-3-5-4-1-1-3]
---------------------------------------------------------------------------------------------------------
Image
Image [04] (05)
Muse
Psycho
[36-20-4-2-4]
---------------------------------------------------------------------------------------------------------
Image
Image [05] (09)
Florence + the Machine
What Kind of Man
[1-1-3-2-7-6-6-10-5]
---------------------------------------------------------------------------------------------------------
Image
Image [06] (05)
Mumford & Sons
Believe
[1-1-2-4-6]
---------------------------------------------------------------------------------------------------------
Image
Image [07] (03)
Florence + the Machine
St Jude
[5-12-7]
---------------------------------------------------------------------------------------------------------
Image
Image [08] (06)
Kodaline
The One
[11-10-12-14-8-8]
---------------------------------------------------------------------------------------------------------
Image
Image [09] (05)
Hozier
Someone New
[4-3-7-5-9]
---------------------------------------------------------------------------------------------------------
Image
Image [10] (04)
Of Monsters and Men
Crystals
[39-16-9-10]
---------------------------------------------------------------------------------------------------------
Image
Image [11] (09)
Imagine Dragons
Shots
[27-8-7-6-9-9-12-6-11]
---------------------------------------------------------------------------------------------------------
Image
Image [12] (07)
Ed Sheeran & Rudimental
Bloodstream
[4-8-14-11-11-16-12]
---------------------------------------------------------------------------------------------------------
Image
Image [13] (04)
AWOLNATION
Hollow Moon (Bad Wolf)
[48-40-20-13]
---------------------------------------------------------------------------------------------------------
Image
Image [14] (14)
Ellie Goulding
Love Me Like You Do
[24-17-5-2-1-2-2-1-1-3-5-8-7-14]
---------------------------------------------------------------------------------------------------------
Image
Image [15] (13)
James Bay
Scars
[1-1-1-2-7-9-10-12-15-14-9-11-15]
---------------------------------------------------------------------------------------------------------
Image
Image [16] (06)
Noel Gallagher's High Flying Birds
Ballad of the Mighty I
[48-40-19-18-13-16]
---------------------------------------------------------------------------------------------------------
Image
Image [17] (04)
Hot Chip
Huarache Lights
[33-19-15-17]
---------------------------------------------------------------------------------------------------------
Image
Image [18] (02)
Muse
Dead Inside
[21-18]
---------------------------------------------------------------------------------------------------------
Image
Image [19] (07)
Foo Fighters
Congregation
[44-41-39-28-20-18-19]
---------------------------------------------------------------------------------------------------------
Image
Image [20] (13)
Kelly Clarkson
Heartbeat Song
[50-45-44-34-33-28-31-5-6-7-10-14-20]
---------------------------------------------------------------------------------------------------------
Image
Image [21] (10)
Sam Smith
Lay Me Down
[40-40-34-20-9-13-10-15-19-21]
---------------------------------------------------------------------------------------------------------
Image
Image [22] (07)
Marina & the Diamonds
I'm a Ruin
[39-35-26-24-28-26-22]
---------------------------------------------------------------------------------------------------------
Image
Image [23] (10)
Royal Blood
Out of the Black
[20-9-5-6-10-8-13-17-22-23]
---------------------------------------------------------------------------------------------------------
Image
Image [24] (10)
Death Cab for Cutie
Black Sun
[46-46-36-28-25-30-40-32-27-24]
---------------------------------------------------------------------------------------------------------
Image
Image [25] (08)
Annie Lennox
I Put a Spell on You
[50-45-40-35-31-25-23-25]
---------------------------------------------------------------------------------------------------------
Image
Image [26] (13)
Maroon 5
Sugar
[36-20-18-19-24-30-35-17-11-8-13-17-26]
---------------------------------------------------------------------------------------------------------
Image
Image [27] (09)
Kaiser Chiefs
Falling Awake
[38-37-34-32-28-27-31-30-27]
---------------------------------------------------------------------------------------------------------
Image
Image [28] (03)
Brandon Flowers
Can't Deny My Love
[38-32-28]
---------------------------------------------------------------------------------------------------------
Image
Image [29] (14)
Ed Sheeran
Photograph
[12-11-4-4-4-5-6-8-13-16-18-21-25-29]
---------------------------------------------------------------------------------------------------------
Image
Image [30] (15)
The Weeknd
Earned It (Fifty Shades of Grey)
[20-14-12-12-9-9-11-11-14-19-19-23-27-31-30]
---------------------------------------------------------------------------------------------------------
Image
Image [31] (12)
Common & John Legend
Glory
[46-42-14-8-4-5-7-12-16-22-24-31]
---------------------------------------------------------------------------------------------------------
Image
Image [32] (12)
Imagine Dragons
Gold
[34-24-22-21-19-13-15-17-21-29-29-32]
---------------------------------------------------------------------------------------------------------
Image
Image [33] (07)
Calvin Harris
Pray to God (featuring HAIM)
[42-44-42-42-39-34-33]
---------------------------------------------------------------------------------------------------------
Image
Image [34] (14)
Marina & the Diamonds
Happy
[8-5-5-10-13-12-17-22-25-31-38-45 // 37-34]
---------------------------------------------------------------------------------------------------------
Image
Image [35] (07)
Blur
Go Out
[46-38-32-25-24-28-35]
---------------------------------------------------------------------------------------------------------
Image
Image [36] (04)
The Wombats
Greek Tragedy
[46-43-39-36]
---------------------------------------------------------------------------------------------------------
Image
Image [37] (09)
Incubus
Absolution Calling
[44-39-32-34-37-41-36-35-37]
---------------------------------------------------------------------------------------------------------
Image
Image [38] (13)
Sia
Elastic Heart
[10-9-6-10-14-16-15-20-20-26-33-36-38]
--------------------------------------------------------------------------------------------------------
Image
Image [39] (02)
Marina & the Diamonds
Forget
[44-39]
---------------------------------------------------------------------------------------------------------
Image
Image [40] (11)
Rihanna, Kanye West & Paul McCartney
FourFiveSeconds
[49-36-34-15-12-22-25-17-23-33-40]
---------------------------------------------------------------------------------------------------------
Image
Image [41] (13)
KONGOS
I Want to Know
[41-35-30-28-28-20-18-23-22-22-30-38-41]
---------------------------------------------------------------------------------------------------------
Image
Image [42] (02)
Echosmith
Bright
[46-42]
---------------------------------------------------------------------------------------------------------
Image
Image [43] (05)
Paloma Faith
Beauty Remains
[33-35-45-43-43]
---------------------------------------------------------------------------------------------------------
Image
Image [44] (15)
Madonna
Living for Love
[10-10-9-13-15-3-6-10-17-16-18-15-26-41-44]
---------------------------------------------------------------------------------------------------------
Image
Image [45] (17)
Kodaline
Honest
[19-10-9-8-13-16-19-23-18-21-23-24-27-36-34-40-45]
--------------------------------------------------------------------------------------------------------
Image
Image [46] (02)
Little Big Town
Girl Crush
[50-46]
---------------------------------------------------------------------------------------------------------
Image
Image [47] (13)
Belle and Sebastian
Nobody's Empire
[48-43-38-35-31-31-22-26-29-34-37-42-47]
---------------------------------------------------------------------------------------------------------
Image
Image [48] (02)
Iggy Azalea
Trouble (featuring Jennifer Hudson)
[49-48]
--------------------------------------------------------------------------------------------------------
Image
Image [49] (01)
Jason Derülo
Want To Want Me

[49]
--------------------------------------------------------------------------------------------------------
Image
Image [50] (01)
David Guetta
What I did for Love (Featuring Emeli Sandé)

[50]
---------------------------------------------------------------------------------------------------------
OUT
---------------------------------------------------------------------------------------------------------
[45] (19)
Mark Ronson
Uptown Funk (featuring Bruno Mars)
[50-35-30-29-28-24-18-18-11-8-8-12-14-9-18-24-30-35-45]
--------------------------------------------------------------------------------------------------------
[47] (16)
Coldplay
Miracles
[8-1-1-1-2-2-3-6-10-13-16-21-23-29-41-47]
--------------------------------------------------------------------------------------------------------
[48] (02)
Kendrick Lamar
The Blacker the Berry
[50-48]
--------------------------------------------------------------------------------------------------------
Last edited by LittleArsonist on Fri Apr 17, 2015 10:44 am, edited 1 time in total.
User avatar
LittleArsonist
Personal Assistant
 
Posts: 955
Joined: Wed Jan 14, 2004

Postby navi » Sat Apr 11, 2015 11:18 am

Jason Derülo - Want To Want Me
Try this one,
not bad at all,
resembles me a bit of Prince.
My year(s) in lists by Ivan (2008 - 2013)
User avatar
navi
Legend
 
Posts: 10470
Joined: Wed Aug 14, 2013
Location: Zagreb/Croatia

Postby Tansike » Wed Apr 15, 2015 12:38 pm

Great number one and i love the entry for David Guetta's "What I Did For Love". Definitely one of the best singles of this year so far, i hope it can peak higher though :)

I have to check out Jason's new single, haven't heard it yet. But he has some good songs in his discography so i may like it :)
User avatar
Tansike
Legend
 
Posts: 45421
Joined: Sat Jan 28, 2012
Location: Switzerland

Postby LittleArsonist » Fri Apr 17, 2015 10:41 am

navi wrote:Jason Derülo - Want To Want Me
Try this one,
not bad at all,
resembles me a bit of Prince.
I agree with you... it surprised me quite a bit when I discovered it :wink:
User avatar
LittleArsonist
Personal Assistant
 
Posts: 955
Joined: Wed Jan 14, 2004

Postby LittleArsonist » Fri Apr 17, 2015 10:42 am

Tansike wrote:Great number one and i love the entry for David Guetta's "What I Did For Love". Definitely one of the best singles of this year so far, i hope it can peak higher though :)
I'm not a fan of Guetta but I'm a huge one of Emeli Sandé :o and I'm still hoping for a solo version of this track in her forthcoming album.

I have to check out Jason's new single, haven't heard it yet. But he has some good songs in his discography so i may like it :)
I think you will. It's very good. :wink:
User avatar
LittleArsonist
Personal Assistant
 
Posts: 955
Joined: Wed Jan 14, 2004

Postby LittleArsonist » Fri Apr 17, 2015 10:56 am

cover
[TW] (WI)
artist
track title
[chartrun]
---------------------------------------------------------------------------------------------------------
50:NGS (16/52) - week ending April 19
Follow my playlist in SPOTIFY!!
---------------------------------------------------------------------------------------------------------
Image
Image [01] (02)
Florence + the Machine
Ship to Wreck
[2-1]
--------------------------------------------------------------------------------------------------------
Image
Image [02] (07)
Madonna
Ghosttown
[4-2-2-3-3-1-2]
---------------------------------------------------------------------------------------------------------
Image
Image [03] (01)
Mumford & Sons
The Wolf

[3]
---------------------------------------------------------------------------------------------------------
Image
Image [04] (06)
Muse
Psycho
[36-20-4-2-4-4]
---------------------------------------------------------------------------------------------------------
Image
Image [05] (12)
James Bay
Hold Back the River
[7-5-3-3-2-3-5-4-1-1-3-5]
---------------------------------------------------------------------------------------------------------
Image
Image [06] (07)
Kodaline
The One
[11-10-12-14-8-8-6]
---------------------------------------------------------------------------------------------------------
Image
Image [07] (05)
AWOLNATION
Hollow Moon (Bad Wolf)
[48-40-20-13-7]
---------------------------------------------------------------------------------------------------------
Image
Image [08] (04)
Florence + the Machine
St Jude
[5-12-7-8]
---------------------------------------------------------------------------------------------------------
Image
Image [09] (06)
Mumford & Sons
Believe
[1-1-2-4-6-9]
---------------------------------------------------------------------------------------------------------
Image
Image [10] (05)
Of Monsters and Men
Crystals
[39-16-9-10-10]
---------------------------------------------------------------------------------------------------------
Image
Image [11] (10)
Florence + the Machine
What Kind of Man
[1-1-3-2-7-6-6-10-5-11]
---------------------------------------------------------------------------------------------------------
Image
Image [12] (03)
Muse
Dead Inside
[21-18-12]
---------------------------------------------------------------------------------------------------------
Image
Image [13] (06)
Hozier
Someone New
[4-3-7-5-9-13]
---------------------------------------------------------------------------------------------------------
Image
Image [14] (08)
Ed Sheeran & Rudimental
Bloodstream
[4-8-14-11-11-16-12-14]
---------------------------------------------------------------------------------------------------------
Image
Image [15] (07)
Noel Gallagher's High Flying Birds
Ballad of the Mighty I
[48-40-19-18-13-16-15]
---------------------------------------------------------------------------------------------------------
Image
Image [16] (10)
Imagine Dragons
Shots
[27-8-7-6-9-9-12-6-11-16]
---------------------------------------------------------------------------------------------------------
Image
Image [17] (14)
James Bay
Scars
[1-1-1-2-7-9-10-12-15-14-9-11-15-17]
---------------------------------------------------------------------------------------------------------
Image
Image [18] (15)
Ellie Goulding
Love Me Like You Do
[24-17-5-2-1-2-2-1-1-3-5-8-7-14-18]
--------------------------------------------------------------------------------------------------------
Image
Image [19] (02)
Jason Derülo
Want To Want Me
[49-19]
---------------------------------------------------------------------------------------------------------
Image
Image [20] (03)
Echosmith
Bright
[46-42-20]
---------------------------------------------------------------------------------------------------------
Image
Image [21] (08)
Marina & the Diamonds
I'm a Ruin
[39-35-26-24-28-26-22-21]
---------------------------------------------------------------------------------------------------------
Image
Image [22] (08)
Foo Fighters
Congregation
[44-41-39-28-20-18-19-22]
---------------------------------------------------------------------------------------------------------
Image
Image [23] (05)
Hot Chip
Huarache Lights
[33-19-15-17-23]
---------------------------------------------------------------------------------------------------------
Image
Image [24] (11)
Sam Smith
Lay Me Down
[40-40-34-20-9-13-10-15-19-21-24]
---------------------------------------------------------------------------------------------------------
Image
Image [25] (11)
Royal Blood
Out of the Black
[20-9-5-6-10-8-13-17-22-23-25]
---------------------------------------------------------------------------------------------------------
Image
Image [26] (14)
Kelly Clarkson
Heartbeat Song
[50-45-44-34-33-28-31-5-6-7-10-14-20-26]
---------------------------------------------------------------------------------------------------------
Image
Image [27] (10)
Kaiser Chiefs
Falling Awake
[38-37-34-32-28-27-31-30-27-27]
---------------------------------------------------------------------------------------------------------
Image
Image [28] (04)
Brandon Flowers
Can't Deny My Love
[38-32-28-28]
---------------------------------------------------------------------------------------------------------
Image
Image [29] (09)
Annie Lennox
I Put a Spell on You
[50-45-40-35-31-25-23-25-29]
---------------------------------------------------------------------------------------------------------
Image
Image [30] (11)
Death Cab for Cutie
Black Sun
[46-46-36-28-25-30-40-32-27-24-30]
---------------------------------------------------------------------------------------------------------
Image
Image [31] (08)
Calvin Harris
Pray to God (featuring HAIM)
[42-44-42-42-39-34-33-31]
---------------------------------------------------------------------------------------------------------
Image
Image [32] (12)
Rihanna, Kanye West & Paul McCartney
FourFiveSeconds
[49-36-34-15-12-22-25-17-23-33-40-32]
---------------------------------------------------------------------------------------------------------
Image
Image [33] (14)
Maroon 5
Sugar
[36-20-18-19-24-30-35-17-11-8-13-17-26-33]
---------------------------------------------------------------------------------------------------------
Image
Image [34] (15)
Marina & the Diamonds
Happy
[8-5-5-10-13-12-17-22-25-31-38-45 // 37-34-34]
---------------------------------------------------------------------------------------------------------
Image
Image [35] (16)
The Weeknd
Earned It (Fifty Shades of Grey)
[20-14-12-12-9-9-11-11-14-19-19-23-27-31-30-35]
---------------------------------------------------------------------------------------------------------
Image
Image [36] (05)
The Wombats
Greek Tragedy
[46-43-39-36-36]
--------------------------------------------------------------------------------------------------------
Image
Image [37] (03)
Marina & the Diamonds
Forget
[44-39-37]
---------------------------------------------------------------------------------------------------------
Image
Image [38] (15)
Ed Sheeran
Photograph
[12-11-4-4-4-5-6-8-13-16-18-21-25-29-38]
---------------------------------------------------------------------------------------------------------
Image
Image [39] (13)
Common & John Legend
Glory
[46-42-14-8-4-5-7-12-16-22-24-31-39]
---------------------------------------------------------------------------------------------------------
Image
Image [40] (10)
Incubus
Absolution Calling
[44-39-32-34-37-41-36-35-37-40]
--------------------------------------------------------------------------------------------------------
Image
Image [41] (03)
Little Big Town
Girl Crush
[50-46-41]
---------------------------------------------------------------------------------------------------------
Image
Image [42] (14)
Sia
Elastic Heart
[10-9-6-10-14-16-15-20-20-26-33-36-38-42]
---------------------------------------------------------------------------------------------------------
Image
Image [43] (03)
Iggy Azalea
Trouble (featuring Jennifer Hudson)
[49-48-43]
---------------------------------------------------------------------------------------------------------
Image
Image [44] (13)
Imagine Dragons
Gold
[34-24-22-21-19-13-15-17-21-29-29-32-44]
---------------------------------------------------------------------------------------------------------
Image
Image [45] (14)
KONGOS
I Want to Know
[41-35-30-28-28-20-18-23-22-22-30-38-41-45]
--------------------------------------------------------------------------------------------------------
Image
Image [46] (01)
Brandon Flowers
Still Want You

[46]
--------------------------------------------------------------------------------------------------------
Image
Image [47] (02)
David Guetta
What I did for Love (Featuring Emeli Sandé)
[50-47]
---------------------------------------------------------------------------------------------------------
Image
Image [48] (18)
Kodaline
Honest
[19-10-9-8-13-16-19-23-18-21-23-24-27-36-34-40-45-48]
---------------------------------------------------------------------------------------------------------
Image
Image [49] (08)
Blur
Go Out
[46-38-32-25-24-28-35-49]
---------------------------------------------------------------------------------------------------------
Image
Image [50] (14)
Belle and Sebastian
Nobody's Empire
[48-43-38-35-31-31-22-26-29-34-37-42-47-50]
---------------------------------------------------------------------------------------------------------
OUT
---------------------------------------------------------------------------------------------------------
[43] (05)
Paloma Faith
Beauty Remains
[33-35-45-43-43]
---------------------------------------------------------------------------------------------------------
[44] (15)
Madonna
Living for Love
[10-10-9-13-15-3-6-10-17-16-18-15-26-41-44]
---------------------------------------------------------------------------------------------------------
User avatar
LittleArsonist
Personal Assistant
 
Posts: 955
Joined: Wed Jan 14, 2004

Postby Tansike » Wed Apr 22, 2015 1:29 pm

Really happy to see some new peaks this week ("I'm A Ruin", "Forget", "What I Did For Love") :D
User avatar
Tansike
Legend
 
Posts: 45421
Joined: Sat Jan 28, 2012
Location: Switzerland

Postby LittleArsonist » Thu Apr 23, 2015 10:07 pm

cover
[TW] (WI)
artist
track title
[chartrun]
---------------------------------------------------------------------------------------------------------
50:NGS (17/52) - week ending April 26
Follow my playlist in SPOTIFY!!
---------------------------------------------------------------------------------------------------------
Image
Image [01] (03)
Florence + the Machine
Ship to Wreck
[2-1-1]
--------------------------------------------------------------------------------------------------------
Image
Image [02] (02)
Mumford & Sons
The Wolf
[3-2]
---------------------------------------------------------------------------------------------------------
Image
Image [03] (08)
Madonna
Ghosttown
[4-2-2-3-3-1-2-3]
---------------------------------------------------------------------------------------------------------
Image
Image [04] (08)
Kodaline
The One
[11-10-12-14-8-8-6-4]
---------------------------------------------------------------------------------------------------------
Image
Image [05] (07)
Mumford & Sons
Believe
[1-1-2-4-6-9-5]
---------------------------------------------------------------------------------------------------------
Image
Image [06] (06)
AWOLNATION
Hollow Moon (Bad Wolf)
[48-40-20-13-7-6]
---------------------------------------------------------------------------------------------------------
Image
Image [07] (13)
James Bay
Hold Back the River
[7-5-3-3-2-3-5-4-1-1-3-5-7]
--------------------------------------------------------------------------------------------------------
Image
Image [08] (01)
James Bay
Let It Go

[8]
--------------------------------------------------------------------------------------------------------
Image
Image [09] (07)
Muse
Psycho
[36-20-4-2-4-4-9]
---------------------------------------------------------------------------------------------------------
Image
Image [10] (05)
Brandon Flowers
Can't Deny My Love
[38-32-28-28-10]
---------------------------------------------------------------------------------------------------------
Image
Image [11] (06)
Of Monsters and Men
Crystals
[39-16-9-10-10-11]
---------------------------------------------------------------------------------------------------------
Image
Image [12] (04)
Muse
Dead Inside
[21-18-12-12]
--------------------------------------------------------------------------------------------------------
Image
Image [13] (03)
Jason Derülo
Want To Want Me
[49-19-13]
---------------------------------------------------------------------------------------------------------
Image
Image [14] (04)
Echosmith
Bright
[46-42-20-14]
---------------------------------------------------------------------------------------------------------
Image
Image [15] (05)
Florence + the Machine
St Jude
[5-12-7-8-15]
---------------------------------------------------------------------------------------------------------
Image
Image [16] (09)
Marina & the Diamonds
I'm a Ruin
[39-35-26-24-28-26-22-21-16]
---------------------------------------------------------------------------------------------------------
Image
Image [17] (11)
Florence + the Machine
What Kind of Man
[1-1-3-2-7-6-6-10-5-11-17]
---------------------------------------------------------------------------------------------------------
Image
Image [18] (12)
Royal Blood
Out of the Black
[20-9-5-6-10-8-13-17-22-23-25-18]
---------------------------------------------------------------------------------------------------------
Image
Image [19] (07)
Hozier
Someone New
[4-3-7-5-9-13-19]
---------------------------------------------------------------------------------------------------------
Image
Image [20] (08)
Noel Gallagher's High Flying Birds
Ballad of the Mighty I
[48-40-19-18-13-16-15-20]
---------------------------------------------------------------------------------------------------------
Image
Image [21] (16)
Ellie Goulding
Love Me Like You Do
[24-17-5-2-1-2-2-1-1-3-5-8-7-14-18-21]
---------------------------------------------------------------------------------------------------------
Image
Image [22] (09)
Ed Sheeran & Rudimental
Bloodstream
[4-8-14-11-11-16-12-14-22]
--------------------------------------------------------------------------------------------------------
Image
Image [23] (04)
Little Big Town
Girl Crush
[50-46-41-23]
---------------------------------------------------------------------------------------------------------
Image
Image [24] (15)
James Bay
Scars
[1-1-1-2-7-9-10-12-15-14-9-11-15-17-24]
---------------------------------------------------------------------------------------------------------
Image
Image [25] (06)
Hot Chip
Huarache Lights
[33-19-15-17-23-25]
--------------------------------------------------------------------------------------------------------
Image
Image [26] (01)
Mumford & Sons
Snake Eyes

[26]
---------------------------------------------------------------------------------------------------------
Image
Image [27] (09)
Calvin Harris
Pray to God (featuring HAIM)
[42-44-42-42-39-34-33-31-27]
---------------------------------------------------------------------------------------------------------
Image
Image [28] (11)
Imagine Dragons
Shots
[27-8-7-6-9-9-12-6-11-16-28]
---------------------------------------------------------------------------------------------------------
Image
Image [29] (09)
Foo Fighters
Congregation
[44-41-39-28-20-18-19-22-29]
---------------------------------------------------------------------------------------------------------
Image
Image [30] (04)
Iggy Azalea
Trouble (featuring Jennifer Hudson)
[49-48-43-30]
---------------------------------------------------------------------------------------------------------
Image
Image [31] (11)
Kaiser Chiefs
Falling Awake
[38-37-34-32-28-27-31-30-27-27-31]
---------------------------------------------------------------------------------------------------------
Image
Image [32] (12)
Sam Smith
Lay Me Down
[40-40-34-20-9-13-10-15-19-21-24-32]
---------------------------------------------------------------------------------------------------------
Image
Image [33] (12)
Death Cab for Cutie
Black Sun
[46-46-36-28-25-30-40-32-27-24-30-33]
---------------------------------------------------------------------------------------------------------
Image
Image [34] (15)
Kelly Clarkson
Heartbeat Song
[50-45-44-34-33-28-31-5-6-7-10-14-20-26-34]
--------------------------------------------------------------------------------------------------------
Image
Image [35] (04)
Marina & the Diamonds
Forget
[44-39-37-35]
---------------------------------------------------------------------------------------------------------
Image
Image [36] (15)
Maroon 5
Sugar
[36-20-18-19-24-30-35-17-11-8-13-17-26-33-36]
---------------------------------------------------------------------------------------------------------
Image
Image [37] (10)
Annie Lennox
I Put a Spell on You
[50-45-40-35-31-25-23-25-29-37]
---------------------------------------------------------------------------------------------------------
Image
Image [38] (17)
The Weeknd
Earned It (Fifty Shades of Grey)
[20-14-12-12-9-9-11-11-14-19-19-23-27-31-30-35-38]
---------------------------------------------------------------------------------------------------------
Image
Image [39] (06)
The Wombats
Greek Tragedy
[46-43-39-36-36-39]
---------------------------------------------------------------------------------------------------------
Image
Image [40] (16)
Ed Sheeran
Photograph
[12-11-4-4-4-5-6-8-13-16-18-21-25-29-38-40]
--------------------------------------------------------------------------------------------------------
Image
Image [41] (02)
Brandon Flowers
Still Want You
[46-41]
---------------------------------------------------------------------------------------------------------
Image
Image [42] (13)
Rihanna, Kanye West & Paul McCartney
FourFiveSeconds
[49-36-34-15-12-22-25-17-23-33-40-32-42]
--------------------------------------------------------------------------------------------------------
Image
Image [43] (01)
Rihanna
American Oxygen

[43]
---------------------------------------------------------------------------------------------------------
Image
Image [44] (16)
Marina & the Diamonds
Happy
[8-5-5-10-13-12-17-22-25-31-38-45 // 37-34-34-44]
---------------------------------------------------------------------------------------------------------
Image
Image [45] (15)
Sia
Elastic Heart
[10-9-6-10-14-16-15-20-20-26-33-36-38-42-45]
---------------------------------------------------------------------------------------------------------
Image
Image [46] (14)
Common & John Legend
Glory
[46-42-14-8-4-5-7-12-16-22-24-31-39-46]
---------------------------------------------------------------------------------------------------------
Image
Image [47] (11)
Incubus
Absolution Calling
[44-39-32-34-37-41-36-35-37-40-47]
---------------------------------------------------------------------------------------------------------
Image
Image [48] (19)
Kodaline
Honest
[19-10-9-8-13-16-19-23-18-21-23-24-27-36-34-40-45-48-48]
---------------------------------------------------------------------------------------------------------
Image
Image [49] (14)
Imagine Dragons
Gold
[34-24-22-21-19-13-15-17-21-29-29-32-44-49]
--------------------------------------------------------------------------------------------------------
Image
Image [50] (01)
Adam Lambert
Ghost Town

[50]
---------------------------------------------------------------------------------------------------------
OUT
---------------------------------------------------------------------------------------------------------
[45] (14)
Kongos
I Want to Know
[41-35-30-28-28-20-18-23-22-22-30-38-41-45]
--------------------------------------------------------------------------------------------------------
[47] (02)
David Guetta
What I did for Love (Featuring Emeli Sandé)
[50-47]
---------------------------------------------------------------------------------------------------------
[49] (08)
Blur
Go Out
[46-38-32-25-24-28-35-49]
---------------------------------------------------------------------------------------------------------
[50] (14)
Belle and Sebastian
Nobody's Empire
[48-43-38-35-31-31-22-26-29-34-37-42-47-50]
---------------------------------------------------------------------------------------------------------
User avatar
LittleArsonist
Personal Assistant
 
Posts: 955
Joined: Wed Jan 14, 2004

Postby Tansike » Wed Apr 29, 2015 2:22 pm

Great entries for James Bay, Rihanna and Adam Lambert this week :)
I hope Adam's "Ghost Town" will reach a new peak soon though :)
User avatar
Tansike
Legend
 
Posts: 45421
Joined: Sat Jan 28, 2012
Location: Switzerland

Postby RalphyS » Thu Apr 30, 2015 11:50 am

50 songs and only 2 I dislike => great chart!
User avatar
RalphyS
Manager
 
Posts: 1111
Joined: Tue Apr 13, 2010
Location: Limburg, The Netherlands

Postby LittleArsonist » Fri May 01, 2015 2:30 pm

Tansike wrote:Great entries for James Bay, Rihanna and Adam Lambert this week :)
I hope Adam's "Ghost Town" will reach a new peak soon though :)
that was a surprising comeback single to me for Adam Lambert :)
the Queen experience must have done good to him :D
User avatar
LittleArsonist
Personal Assistant
 
Posts: 955
Joined: Wed Jan 14, 2004

Postby LittleArsonist » Fri May 01, 2015 2:32 pm

RalphyS wrote:50 songs and only 2 I dislike => great chart!
thanks a lot for checking, Ralphy :)

which ones are those you dislike? :D
User avatar
LittleArsonist
Personal Assistant
 
Posts: 955
Joined: Wed Jan 14, 2004

Postby LittleArsonist » Fri May 01, 2015 2:46 pm

cover
[TW] (WI)
artist
track title
[chartrun]
---------------------------------------------------------------------------------------------------------
50:NGS (18/52) - week ending May 3
Follow my playlist in SPOTIFY!!
---------------------------------------------------------------------------------------------------------
Image
Image [01] (04)
Florence + the Machine
Ship to Wreck
[2-1-1-1]
--------------------------------------------------------------------------------------------------------
Image
Image [02] (01)
Of Monsters and Men
I of the Storm

[2]
--------------------------------------------------------------------------------------------------------
Image
Image [03] (03)
Mumford & Sons
The Wolf
[3-2-3]
---------------------------------------------------------------------------------------------------------
Image
Image [04] (09)
Kodaline
The One
[11-10-12-14-8-8-6-4-4]
--------------------------------------------------------------------------------------------------------
Image
Image [05] (02)
James Bay
Let It Go
[8-5]
---------------------------------------------------------------------------------------------------------
Image
Image [06] (07)
AWOLNATION
Hollow Moon (Bad Wolf)
[48-40-20-13-7-6-6]
---------------------------------------------------------------------------------------------------------
Image
Image [07] (09)
Madonna
Ghosttown
[4-2-2-3-3-1-2-3-7]
---------------------------------------------------------------------------------------------------------
Image
Image [08] (05)
Muse
Dead Inside
[21-18-12-12-8]
---------------------------------------------------------------------------------------------------------
Image
Image [09] (08)
Mumford & Sons
Believe
[1-1-2-4-6-9-5-9]
---------------------------------------------------------------------------------------------------------
Image
Image [10] (06)
Brandon Flowers
Can't Deny My Love
[38-32-28-28-10-10]
---------------------------------------------------------------------------------------------------------
Image
Image [11] (05)
Echosmith
Bright
[46-42-20-14-11]
---------------------------------------------------------------------------------------------------------
Image
Image [12] (07)
Of Monsters and Men
Crystals
[39-16-9-10-10-11-12]
---------------------------------------------------------------------------------------------------------
Image
Image [13] (14)
James Bay
Hold Back the River
[7-5-3-3-2-3-5-4-1-1-3-5-7-13]
--------------------------------------------------------------------------------------------------------
Image
Image [14] (08)
Muse
Psycho
[36-20-4-2-4-4-9-14]
--------------------------------------------------------------------------------------------------------
Image
Image [15] (04)
Jason Derülo
Want To Want Me
[49-19-13-15]
--------------------------------------------------------------------------------------------------------
Image
Image [16] (05)
Little Big Town
Girl Crush
[50-46-41-23-16]
---------------------------------------------------------------------------------------------------------
Image
Image [17] (06)
Florence + the Machine
St Jude
[5-12-7-8-15-17]
--------------------------------------------------------------------------------------------------------
Image
Image [18] (02)
Mumford & Sons
Snake Eyes
[26-18]
---------------------------------------------------------------------------------------------------------
Image
Image [19] (12)
Florence + the Machine
What Kind of Man
[1-1-3-2-7-6-6-10-5-11-17-19]
---------------------------------------------------------------------------------------------------------
Image
Image [20] (10)
Marina & the Diamonds
I'm a Ruin
[39-35-26-24-28-26-22-21-16-20]
---------------------------------------------------------------------------------------------------------
Image
Image [21] (08)
Hozier
Someone New
[4-3-7-5-9-13-19-21]
---------------------------------------------------------------------------------------------------------
Image
Image [22] (13)
Royal Blood
Out of the Black
[20-9-5-6-10-8-13-17-22-23-25-18-22]
---------------------------------------------------------------------------------------------------------
Image
Image [23] (09)
Noel Gallagher's High Flying Birds
Ballad of the Mighty I
[48-40-19-18-13-16-15-20-23]
---------------------------------------------------------------------------------------------------------
Image
Image [24] (07)
Hot Chip
Huarache Lights
[33-19-15-17-23-25-24]
--------------------------------------------------------------------------------------------------------
Image
Image [25] (02)
Rihanna
American Oxygen
[43-25]
---------------------------------------------------------------------------------------------------------
Image
Image [26] (17)
Ellie Goulding
Love Me Like You Do
[24-17-5-2-1-2-2-1-1-3-5-8-7-14-18-21-26]
--------------------------------------------------------------------------------------------------------
Image
Image [27] (03)
Brandon Flowers
Still Want You
[46-41-27]
--------------------------------------------------------------------------------------------------------
Image
Image [28] (05)
Marina & the Diamonds
Forget
[44-39-37-35-28]
---------------------------------------------------------------------------------------------------------
Image
Image [29] (16)
James Bay
Scars
[1-1-1-2-7-9-10-12-15-14-9-11-15-17-24-29]
---------------------------------------------------------------------------------------------------------
Image
Image [30] (10)
Ed Sheeran & Rudimental
Bloodstream
[4-8-14-11-11-16-12-14-22-30]
---------------------------------------------------------------------------------------------------------
Image
Image [31] (10)
Calvin Harris
Pray to God (featuring HAIM)
[42-44-42-42-39-34-33-31-27-31]
---------------------------------------------------------------------------------------------------------
Image
Image [32] (05)
Iggy Azalea
Trouble (featuring Jennifer Hudson)
[49-48-43-30-32]
---------------------------------------------------------------------------------------------------------
Image
Image [33] (12)
Kaiser Chiefs
Falling Awake
[38-37-34-32-28-27-31-30-27-27-31-33]
---------------------------------------------------------------------------------------------------------
Image
Image [34] (12)
Imagine Dragons
Shots
[27-8-7-6-9-9-12-6-11-16-28-34]
---------------------------------------------------------------------------------------------------------
Image
Image [35] (10)
Foo Fighters
Congregation
[44-41-39-28-20-18-19-22-29-35]
--------------------------------------------------------------------------------------------------------
Image
Image [36] (01)
Brandon Flowers
Lonely Town

[36]
---------------------------------------------------------------------------------------------------------
Image
Image [37] (13)
Sam Smith
Lay Me Down
[40-40-34-20-9-13-10-15-19-21-24-32-37]
---------------------------------------------------------------------------------------------------------
Image
Image [38] (13)
Death Cab for Cutie
Black Sun
[46-46-36-28-25-30-40-32-27-24-30-33-38]
---------------------------------------------------------------------------------------------------------
Image
Image [39] (18)
The Weeknd
Earned It (Fifty Shades of Grey)
[20-14-12-12-9-9-11-11-14-19-19-23-27-31-30-35-38-39]
---------------------------------------------------------------------------------------------------------
Image
Image [40] (16)
Kelly Clarkson
Heartbeat Song
[50-45-44-34-33-28-31-5-6-7-10-14-20-26-34-40]
--------------------------------------------------------------------------------------------------------
Image
Image [41] (01)
Saint Raymond
Come Back To You

[41]
---------------------------------------------------------------------------------------------------------
Image
Image [42] (07)
The Wombats
Greek Tragedy
[46-43-39-36-36-39-42]
---------------------------------------------------------------------------------------------------------
Image
Image [43] (11)
Annie Lennox
I Put a Spell on You
[50-45-40-35-31-25-23-25-29-37-43]
---------------------------------------------------------------------------------------------------------
Image
Image [44] (16)
Maroon 5
Sugar
[36-20-18-19-24-30-35-17-11-8-13-17-26-33-36-44]
--------------------------------------------------------------------------------------------------------
Image
Image [45] (02)
Adam Lambert
Ghost Town
[50-45]
---------------------------------------------------------------------------------------------------------
Image
Image [46] (17)
Marina & the Diamonds
Happy
[8-5-5-10-13-12-17-22-25-31-38-45 // 37-34-34-44-46]
---------------------------------------------------------------------------------------------------------
Image
Image [47] (16)
Sia
Elastic Heart
[10-9-6-10-14-16-15-20-20-26-33-36-38-42-45-47]
---------------------------------------------------------------------------------------------------------
Image
Image [48] (14)
Rihanna, Kanye West & Paul McCartney
FourFiveSeconds
[49-36-34-15-12-22-25-17-23-33-40-32-42-48]
--------------------------------------------------------------------------------------------------------
Image
Image [49] (01)
Jessie J
Flashlight

[49]
---------------------------------------------------------------------------------------------------------
Image
Image [50] (17)
Ed Sheeran
Photograph
[12-11-4-4-4-5-6-8-13-16-18-21-25-29-38-40-50]
---------------------------------------------------------------------------------------------------------
OUT
---------------------------------------------------------------------------------------------------------
[46] (14)
Common & John Legend
Glory
[46-42-14-8-4-5-7-12-16-22-24-31-39-46]
---------------------------------------------------------------------------------------------------------
[47] (11)
Incubus
Absolution Calling
[44-39-32-34-37-41-36-35-37-40-47]
---------------------------------------------------------------------------------------------------------
[48] (19)
Kodaline
Honest
[19-10-9-8-13-16-19-23-18-21-23-24-27-36-34-40-45-48-48]
---------------------------------------------------------------------------------------------------------
[49] (14)
Imagine Dragons
Gold
[34-24-22-21-19-13-15-17-21-29-29-32-44-49]
---------------------------------------------------------------------------------------------------------
User avatar
LittleArsonist
Personal Assistant
 
Posts: 955
Joined: Wed Jan 14, 2004

Postby Tansike » Wed May 06, 2015 10:36 am

I have to check out the new tracks by Of Monsters And Men & Jessie J. Loved Jessie's latest album, and OMOM's debut was great too, but their last single "Crystals" wasn't that strong...

Great climb for Rihanna's "American Oxygen" this week. I guess it's already my fave of all three new songs by her :)
User avatar
Tansike
Legend
 
Posts: 45421
Joined: Sat Jan 28, 2012
Location: Switzerland

Postby LittleArsonist » Fri May 08, 2015 4:22 pm

Tansike wrote:Great climb for Rihanna's "American Oxygen" this week. I guess it's already my fave of all three new songs by her :)
couldn't agree more with you!!! 8-)
User avatar
LittleArsonist
Personal Assistant
 
Posts: 955
Joined: Wed Jan 14, 2004

Postby LittleArsonist » Fri May 08, 2015 4:41 pm

cover
[TW] (WI)
artist
track title
[chartrun]
---------------------------------------------------------------------------------------------------------
50:NGS (19/52) - week ending May 10
Follow my playlist in SPOTIFY!!
--------------------------------------------------------------------------------------------------------
Image
Image [01] (04)
Mumford & Sons
The Wolf
[3-2-3-1]
--------------------------------------------------------------------------------------------------------
Image
Image [02] (02)
Of Monsters and Men
I of the Storm
[2-2]
---------------------------------------------------------------------------------------------------------
Image
Image [03] (05)
Florence + the Machine
Ship to Wreck
[2-1-1-1-3]
--------------------------------------------------------------------------------------------------------
Image
Image [04] (03)
James Bay
Let It Go
[8-5-4]
---------------------------------------------------------------------------------------------------------
Image
Image [05] (10)
Kodaline
The One
[11-10-12-14-8-8-6-4-4-5]
---------------------------------------------------------------------------------------------------------
Image
Image [06] (08)
AWOLNATION
Hollow Moon (Bad Wolf)
[48-40-20-13-7-6-6-6]
---------------------------------------------------------------------------------------------------------
Image
Image [07] (07)
Brandon Flowers
Can't Deny My Love
[38-32-28-28-10-10-7]
---------------------------------------------------------------------------------------------------------
Image
Image [08] (10)
Madonna
Ghosttown
[4-2-2-3-3-1-2-3-7-8]
---------------------------------------------------------------------------------------------------------
Image
Image [09] (06)
Muse
Dead Inside
[21-18-12-12-8-9]
---------------------------------------------------------------------------------------------------------
Image
Image [10] (08)
Of Monsters and Men
Crystals
[39-16-9-10-10-11-12-10]
---------------------------------------------------------------------------------------------------------
Image
Image [11] (06)
Echosmith
Bright
[46-42-20-14-11-11]
--------------------------------------------------------------------------------------------------------
Image
Image [12] (05)
Jason Derülo
Want To Want Me
[49-19-13-15-12]
---------------------------------------------------------------------------------------------------------
Image
Image [13] (09)
Mumford & Sons
Believe
[1-1-2-4-6-9-5-9-13]
--------------------------------------------------------------------------------------------------------
Image
Image [14] (09)
Muse
Psycho
[36-20-4-2-4-4-9-14-14]
--------------------------------------------------------------------------------------------------------
Image
Image [15] (03)
Mumford & Sons
Snake Eyes
[26-18-15]
--------------------------------------------------------------------------------------------------------
Image
Image [16] (06)
Little Big Town
Girl Crush
[50-46-41-23-16-16]
---------------------------------------------------------------------------------------------------------
Image
Image [17] (07)
Florence + the Machine
St Jude
[5-12-7-8-15-17-17]
---------------------------------------------------------------------------------------------------------
Image
Image [18] (09)
Hozier
Someone New
[4-3-7-5-9-13-19-21-18]
--------------------------------------------------------------------------------------------------------
Image
Image [19] (06)
Marina & the Diamonds
Forget
[44-39-37-35-28-19]
---------------------------------------------------------------------------------------------------------
Image
Image [20] (15)
James Bay
Hold Back the River
[7-5-3-3-2-3-5-4-1-1-3-5-7-13-20]
--------------------------------------------------------------------------------------------------------
Image
Image [21] (03)
Rihanna
American Oxygen
[43-25-21]
---------------------------------------------------------------------------------------------------------
Image
Image [22] (13)
Florence + the Machine
What Kind of Man
[1-1-3-2-7-6-6-10-5-11-17-19-22]
---------------------------------------------------------------------------------------------------------
Image
Image [23] (14)
Royal Blood
Out of the Black
[20-9-5-6-10-8-13-17-22-23-25-18-22-23]
--------------------------------------------------------------------------------------------------------
Image
Image [24] (04)
Brandon Flowers
Still Want You
[46-41-27-24]
---------------------------------------------------------------------------------------------------------
Image
Image [25] (11)
Marina & the Diamonds
I'm a Ruin
[39-35-26-24-28-26-22-21-16-20-25]
---------------------------------------------------------------------------------------------------------
Image
Image [26] (06)
Iggy Azalea
Trouble (featuring Jennifer Hudson)
[49-48-43-30-32-26]
---------------------------------------------------------------------------------------------------------
Image
Image [27] (10)
Noel Gallagher's High Flying Birds
Ballad of the Mighty I
[48-40-19-18-13-16-15-20-23-27]
---------------------------------------------------------------------------------------------------------
Image
Image [28] (11)
Ed Sheeran & Rudimental
Bloodstream
[4-8-14-11-11-16-12-14-22-30-28]
---------------------------------------------------------------------------------------------------------
Image
Image [29] (11)
Calvin Harris
Pray to God (featuring HAIM)
[42-44-42-42-39-34-33-31-27-31-29]
--------------------------------------------------------------------------------------------------------
Image
Image [30] (01)
Belle and Sebastian
Paper Boat

[30]
---------------------------------------------------------------------------------------------------------
Image
Image [31] (08)
Hot Chip
Huarache Lights
[33-19-15-17-23-25-24-31]
--------------------------------------------------------------------------------------------------------
Image
Image [32] (02)
Saint Raymond
Come Back To You
[41-32]
---------------------------------------------------------------------------------------------------------
Image
Image [33] (13)
Kaiser Chiefs
Falling Awake
[38-37-34-32-28-27-31-30-27-27-31-33-33]
--------------------------------------------------------------------------------------------------------
Image
Image [34] (02)
Brandon Flowers
Lonely Town
[36-34]
---------------------------------------------------------------------------------------------------------
Image
Image [35] (13)
Imagine Dragons
Shots
[27-8-7-6-9-9-12-6-11-16-28-34-35]
---------------------------------------------------------------------------------------------------------
Image
Image [36] (18)
Ellie Goulding
Love Me Like You Do
[24-17-5-2-1-2-2-1-1-3-5-8-7-14-18-21-26-36]
---------------------------------------------------------------------------------------------------------
Image
Image [37] (14)
Sam Smith
Lay Me Down
[40-40-34-20-9-13-10-15-19-21-24-32-37-37]
---------------------------------------------------------------------------------------------------------
Image
Image [38] (17)
James Bay
Scars
[1-1-1-2-7-9-10-12-15-14-9-11-15-17-24-29-38]
---------------------------------------------------------------------------------------------------------
Image
Image [39] (11)
Foo Fighters
Congregation
[44-41-39-28-20-18-19-22-29-35-39]
--------------------------------------------------------------------------------------------------------
Image
Image [40] (02)
Jessie J
Flashlight
[49-40]
---------------------------------------------------------------------------------------------------------
Image
Image [41] (08)
The Wombats
Greek Tragedy
[46-43-39-36-36-39-42-41]
---------------------------------------------------------------------------------------------------------
Image
Image [42] (14)
Death Cab for Cutie
Black Sun
[46-46-36-28-25-30-40-32-27-24-30-33-38-42]
--------------------------------------------------------------------------------------------------------
Image
Image [43] (03)
Adam Lambert
Ghost Town
[50-45-43]
---------------------------------------------------------------------------------------------------------
Image
Image [44] (19)
The Weeknd
Earned It (Fifty Shades of Grey)
[20-14-12-12-9-9-11-11-14-19-19-23-27-31-30-35-38-39-44]
--------------------------------------------------------------------------------------------------------
Image
Image [45] (01)
Miguel
Coffee (F***ing) (featuring Wale)

[45]
---------------------------------------------------------------------------------------------------------
Image
Image [46] (17)
Kelly Clarkson
Heartbeat Song
[50-45-44-34-33-28-31-5-6-7-10-14-20-26-34-40-46]
--------------------------------------------------------------------------------------------------------
Image
Image [47] (01)
Major Lazer
Lean On (featuring MØ & DJ Snake)

[47]
---------------------------------------------------------------------------------------------------------
Image
Image [48] (12)
Annie Lennox
I Put a Spell on You
[50-45-40-35-31-25-23-25-29-37-43-48]
---------------------------------------------------------------------------------------------------------
Image
Image [49] (17)
Maroon 5
Sugar
[36-20-18-19-24-30-35-17-11-8-13-17-26-33-36-44-49]
---------------------------------------------------------------------------------------------------------
Image
Image [50] (18)
Ed Sheeran
Photograph
[12-11-4-4-4-5-6-8-13-16-18-21-25-29-38-40-50-50]
---------------------------------------------------------------------------------------------------------
OUT
---------------------------------------------------------------------------------------------------------
[46] (17)
Marina & the Diamonds
Happy
[8-5-5-10-13-12-17-22-25-31-38-45 // 37-34-34-44-46]
---------------------------------------------------------------------------------------------------------
[47] (16)
Sia
Elastic Heart
[10-9-6-10-14-16-15-20-20-26-33-36-38-42-45-47]
---------------------------------------------------------------------------------------------------------
[48] (14)
Rihanna, Kanye West & Paul McCartney
FourFiveSeconds
[49-36-34-15-12-22-25-17-23-33-40-32-42-48]
---------------------------------------------------------------------------------------------------------
Last edited by LittleArsonist on Fri May 15, 2015 5:27 pm, edited 1 time in total.
User avatar
LittleArsonist
Personal Assistant
 
Posts: 955
Joined: Wed Jan 14, 2004

Postby RalphyS » Sat May 09, 2015 12:32 pm

LittleArsonist wrote:
RalphyS wrote:50 songs and only 2 I dislike => great chart!
thanks a lot for checking, Ralphy :)

which ones are those you dislike? :D
After checking there were 3, both "Ghost town"s and Iggy & Jennifer.

Also not a fan of Major Lazer, but that wasn't in the list at that time, but let's focus on the majority that I like, your number 1 just entered my chart!
User avatar
RalphyS
Manager
 
Posts: 1111
Joined: Tue Apr 13, 2010
Location: Limburg, The Netherlands

Return to Personal Charts