50:иgѕ w/e October 7 - and still crying

Moderators: JSparksFan, tdc2000, FreakyFlyBry

 

Postby LittleArsonist » Sat Jun 13, 2015 10:01 am

navi wrote:No links for new entries?
OOops!

Madonna ... hmm, at # 1 on my (this week) chart 20 years ago with Human nature,
(along with Frozen, the best Madonna video)
not considering this one even for top 100
oh I wish Madonna was still doing what she did from Like-A-Prayer-era through the whole 90s and first part of the 00s... that's just incomparable...this said by a huge fan of hers.
User avatar
LittleArsonist
Personal Assistant
 
Posts: 939
Joined: Wed Jan 14, 2004

Postby LittleArsonist » Sat Jun 13, 2015 10:02 am

Tansike wrote:Great debut for Madonna's "Bitch I'm Madonna". Can't wait to see how the song will do on the charts...
AND...video coming sooooon :D
User avatar
LittleArsonist
Personal Assistant
 
Posts: 939
Joined: Wed Jan 14, 2004

Postby LittleArsonist » Sat Jun 13, 2015 10:03 am

RalphyS wrote:I don't know the new entry by Kodaline yet, will check that out, also the Hot Chip-song!
let me know :)
User avatar
LittleArsonist
Personal Assistant
 
Posts: 939
Joined: Wed Jan 14, 2004

Postby Tansike » Wed Jun 17, 2015 10:35 am

LittleArsonist wrote:
Tansike wrote:Great debut for Madonna's "Bitch I'm Madonna". Can't wait to see how the song will do on the charts...
AND...video coming sooooon :D
YES! Today, hopefully! :)

Great debut for Kelly's "Invincible" this week. I completely forgot about that single somehow :oops:
User avatar
Tansike
Legend
 
Posts: 44325
Joined: Sat Jan 28, 2012
Location: Switzerland

Postby LittleArsonist » Sat Jun 20, 2015 10:34 am

Tansike wrote:
LittleArsonist wrote:
Tansike wrote:Great debut for Madonna's "Bitch I'm Madonna". Can't wait to see how the song will do on the charts...
AND...video coming sooooon :D
YES! Today, hopefully! :)
didn't like it :(
User avatar
LittleArsonist
Personal Assistant
 
Posts: 939
Joined: Wed Jan 14, 2004

Postby navi » Sat Jun 20, 2015 10:41 am

LittleArsonist wrote:
Tansike wrote:
LittleArsonist wrote:
Tansike wrote:Great debut for Madonna's "Bitch I'm Madonna". Can't wait to see how the song will do on the charts...
AND...video coming sooooon :D
YES! Today, hopefully! :)
didn't like it :(
Not that bad,
colorful with so many references to her classic videos,
music sucks
My year(s) in lists by Ivan (2008 - 2013)
User avatar
navi
Legend
 
Posts: 10122
Joined: Wed Aug 14, 2013
Location: Zagreb/Croatia

Postby LittleArsonist » Sat Jun 20, 2015 10:56 am

cover
[TW] (WI)
artist
track title
[chartrun]
---------------------------------------------------------------------------------------------------------
50:NGS (25/52) - week ending June 21
Follow my playlist in SPOTIFY!!
---------------------------------------------------------------------------------------------------------
Image
Image [01] (12)
Muse
Dead Inside
[21-18-12-12-8-9-11-6-5-8-1-1]
---------------------------------------------------------------------------------------------------------
Image
Image [02] (04)
Brandon Flowers
I Can Change
[11-7-3-2]
---------------------------------------------------------------------------------------------------------
Image
Image [03] (11)
Florence + the Machine
Ship to Wreck
[2-1-1-1-3-5-4-6-1-2-3]
---------------------------------------------------------------------------------------------------------
Image
Image [04] (06)
Sia
California Dreamin'
[2-2-1-2-4-4]
---------------------------------------------------------------------------------------------------------
Image
Image [05] (06)
Stereophonics
C'est La Vie
[3-1-2-3-5-5]
--------------------------------------------------------------------------------------------------------
Image
Image [06] (02)
Kelly Clarkson
Invincible
[10-6]
---------------------------------------------------------------------------------------------------------
Image
Image [07] (06)
Editors
No Harm
[1-3-3-6-6-7]
---------------------------------------------------------------------------------------------------------
Image
Image [08] (09)
James Bay
Let It Go
[8-5-4-7-8-10-9-8-8]
---------------------------------------------------------------------------------------------------------
Image
Image [09] (08)
Jessie J
Flashlight
[49-40-34-30-8-10-11-9]
---------------------------------------------------------------------------------------------------------
Image
Image [10] (11)
Jason Derülo
Want To Want Me
[49-19-13-15-12-10-9-7-5-7-10]
--------------------------------------------------------------------------------------------------------
Image
Image [11] (07)
Major Lazer
Lean On (featuring MØ & DJ Snake)
[47-37-35-28-26-20-11]
---------------------------------------------------------------------------------------------------------
Image
Image [12] (10)
Mumford & Sons
The Wolf
[3-2-3-1-4-5-4-4-9-12]
--------------------------------------------------------------------------------------------------------
Image
Image [13] (08)
Saint Raymond
Come Back To You
[41-32-28-24-23-21-19-13]
--------------------------------------------------------------------------------------------------------
Image
Image [14] (02)
Simply Red
Shine On
[21-14]
---------------------------------------------------------------------------------------------------------
Image
Image [15] (08)
Of Monsters and Men
I of the Storm
[2-2-6-7-9-12-14-15]
---------------------------------------------------------------------------------------------------------
Image
Image [16] (05)
Adam Lambert
Underground
[28-14-13-13-16]
--------------------------------------------------------------------------------------------------------
Image
Image [17] (01)
The Weeknd
Can't Feel My Face

[17]
---------------------------------------------------------------------------------------------------------
Image
Image [18] (05)
Maroon 5
This Summer's Gonna Hurt Like A Motherf****r
[13-12-11-12-18]
---------------------------------------------------------------------------------------------------------
Image
Image [19] (14)
Of Monsters and Men
Crystals
[39-16-9-10-10-11-12-10-13-10-13-14-16-19]
--------------------------------------------------------------------------------------------------------
Image
Image [20] (03)
Kodaline
Ready
[30-27-20]
--------------------------------------------------------------------------------------------------------
Image
Image [21] (09)
Mumford & Sons
Snake Eyes
[26-18-15-19-21-27-18-17-21]
--------------------------------------------------------------------------------------------------------
Image
Image [22] (05)
Florence + the Machine
Delilah
[26-26-23-24-22]
---------------------------------------------------------------------------------------------------------
Image
Image [23] (13)
Florence + the Machine
St Jude
[5-12-7-8-15-17-17-24-22-29-15-15-23]
--------------------------------------------------------------------------------------------------------
Image
Image [24] (04)
twenty one pilots
Stressed Out
[35-32-31-24]
---------------------------------------------------------------------------------------------------------
Image
Image [25] (12)
Echosmith
Bright
[46-42-20-14-11-11-14-16-17-20-23-25]
---------------------------------------------------------------------------------------------------------
Image
Image [26] (14)
AWOLNATION
Hollow Moon (Bad Wolf)
[48-40-20-13-7-6-6-6-8-14-15-16-18-26]
--------------------------------------------------------------------------------------------------------
Image
Image [27] (01)
Beck
Dreams

[27]
--------------------------------------------------------------------------------------------------------
Image
Image [28] (02)
The Weeknd
The Hills
[33-28]
---------------------------------------------------------------------------------------------------------
Image
Image [29] (13)
Brandon Flowers
Can't Deny My Love
[38-32-28-28-10-10-7-12-12-18-17-26-29]
--------------------------------------------------------------------------------------------------------
Image
Image [30] (07)
Miguel
Coffee (F***ing) (featuring Wale)
[45-38-34-34-33-34-30]
--------------------------------------------------------------------------------------------------------
Image
Image [31] (04)
A$AP Rocky
Everyday (Featuring Rod Stewart, Miguel & Mark Ronson)
[42-39-37-31]
--------------------------------------------------------------------------------------------------------
Image
Image [32] (15)
Muse
Psycho
[36-20-4-2-4-4-9-14-14-18-20-24-28-25-32]
--------------------------------------------------------------------------------------------------------
Image
Image [33] (12)
Marina & the Diamonds
Forget
[44-39-37-35-28-19-20-23-21-27-28-33]
--------------------------------------------------------------------------------------------------------
Image
Image [34] (03)
Madonna
Bitch I'm Madonna (featuring Nicki Minaj)
[38-38-34]
---------------------------------------------------------------------------------------------------------
Image
Image [35] (16)
Kodaline
The One
[11-10-12-14-8-8-6-4-4-5-9-11-16-24-30-35]
---------------------------------------------------------------------------------------------------------
Image
Image [36] (19)
Florence + the Machine
What Kind of Man
[1-1-3-2-7-6-6-10-5-11-17-19-22-27-31-37-19-22-36]
--------------------------------------------------------------------------------------------------------
Image
Image [37] (10)
Brandon Flowers
Still Want You
[46-41-27-24-22-17-20-22-29-37]
---------------------------------------------------------------------------------------------------------
Image
Image [38] (15)
Mumford & Sons
Believe
[1-1-2-4-6-9-5-9-13-16-18-22-29-32-38]
--------------------------------------------------------------------------------------------------------
Image
Image [39] (12)
Little Big Town
Girl Crush
[50-46-41-23-16-16-15-15-19-25-36-39]
--------------------------------------------------------------------------------------------------------
Image
Image [40] (02)
Leona Lewis
Fire Under My Feet
[42-40]
--------------------------------------------------------------------------------------------------------
Image
Image [41] (09)
Adam Lambert
Ghost Town
[50-45-43-40-38-38-36-41-41]
--------------------------------------------------------------------------------------------------------
Image
Image [42] (02)
Natalie La Rose
Somebody (Featuring Jeremih)
[46-42]
--------------------------------------------------------------------------------------------------------
Image
Image [43] (09)
Rihanna
American Oxygen
[43-25-21-21-19-25-34-39-43]
--------------------------------------------------------------------------------------------------------
Image
Image [44] (05)
Noel Gallagher's High Flying Birds
Riverman
[37-31-31-35-44]
---------------------------------------------------------------------------------------------------------
Image
Image [45] (15)
Hozier
Someone New
[4-3-7-5-9-13-19-21-18-23-29-33-35-40-45]
---------------------------------------------------------------------------------------------------------
Image
Image [46] (17)
Ed Sheeran & Rudimental
Bloodstream
[4-8-14-11-11-16-12-14-22-30-28-33-40-40-40-45-46]
---------------------------------------------------------------------------------------------------------
Image
Image [47] (16)
Madonna
Ghosttown
[4-2-2-3-3-1-2-3-7-8-17-25-32-41-43-47]
--------------------------------------------------------------------------------------------------------
Image
Image [48] (04)
Prince
BALTIMORE (featuring Eryn Allen Kane)
[47-48-49-48]
---------------------------------------------------------------------------------------------------------
Image
Image [49] (12)
Iggy Azalea
Trouble (featuring Jennifer Hudson)
[49-48-43-30-32-26-25-27-30-37-44-49]
--------------------------------------------------------------------------------------------------------
Image
Image [50] (01)
Hurts
Some Kind of Heaven

[50]
---------------------------------------------------------------------------------------------------------
OUT
--------------------------------------------------------------------------------------------------------
[47] (13)
The Wombats
Greek Tragedy
[46-43-39-36-36-39-42-41-46-48-45-45-47]
---------------------------------------------------------------------------------------------------------
[48] (20)
Ed Sheeran
Photograph
[12-11-4-4-4-5-6-8-13-16-18-21-25-29-38-40-50-50 // 43-48]
---------------------------------------------------------------------------------------------------------
[50] (20)
James Bay
Hold Back the River
[7-5-3-3-2-3-5-4-1-1-3-5-7-13-20-26-33-41-44-50]
---------------------------------------------------------------------------------------------------------
User avatar
LittleArsonist
Personal Assistant
 
Posts: 939
Joined: Wed Jan 14, 2004

Postby Tansike » Wed Jun 24, 2015 10:54 am

Great to see Major Lazer climbing with "Lean On" - hopefully Top10 soon :)
The song became one of my favorite songs of the year so far :)

Oh and actually i like the video for "Bitch I'm Madonna". There are obviously really bad scenes, but overall i liked that it's so colourful :)
User avatar
Tansike
Legend
 
Posts: 44325
Joined: Sat Jan 28, 2012
Location: Switzerland

Postby Storyteller » Thu Jun 25, 2015 10:21 pm

Little Big Town 8-) 8-) 8-) 8-) Great to see them here. :D
User avatar
Storyteller
Cowboy Casanova
 
Posts: 13329
Joined: Thu Feb 16, 2012
Location: The Good Ol’ Boys Club

Postby navi » Sat Jun 27, 2015 10:19 am

Image [27] (01)
Beck
Dreams
[27]
--------------------------------------------------------------------------------------------------------
8-)
Beck haven't got for a long time a song with that kind of commercial potential to become a huge hit.
My year(s) in lists by Ivan (2008 - 2013)
User avatar
navi
Legend
 
Posts: 10122
Joined: Wed Aug 14, 2013
Location: Zagreb/Croatia

Postby LittleArsonist » Sat Jun 27, 2015 4:07 pm

navi wrote:
Image [27] (01)
Beck
Dreams
[27]
--------------------------------------------------------------------------------------------------------
8-)
Beck haven't got for a long time a song with that kind of commercial potential to become a huge hit.
so true...reason why everyone was shocked he won a Best Album grammy this year :lol:

he's a genius musically...so talented and so very eclectic 8-)
User avatar
LittleArsonist
Personal Assistant
 
Posts: 939
Joined: Wed Jan 14, 2004

Postby LittleArsonist » Sat Jun 27, 2015 4:08 pm

IrishLamb wrote:Little Big Town 8-) 8-) 8-) 8-) Great to see them here. :D
such a lovely song :wink:
User avatar
LittleArsonist
Personal Assistant
 
Posts: 939
Joined: Wed Jan 14, 2004

Postby LittleArsonist » Sat Jun 27, 2015 4:11 pm

Tansike wrote:Great to see Major Lazer climbing with "Lean On" - hopefully Top10 soon :)
The song became one of my favorite songs of the year so far :)
I'm so surprised I like it too! :)

Oh and actually i like the video for "Bitch I'm Madonna". There are obviously really bad scenes, but overall i liked that it's so colourful :)
btw she needs to thank Nicki Minaj who made her enter in the Billboard Hot 100 in the last years with the only 2 tracks she's actually featured in. Too bad Madonna does need another artist for a smashing charting hits nowadays :o
User avatar
LittleArsonist
Personal Assistant
 
Posts: 939
Joined: Wed Jan 14, 2004

Postby LittleArsonist » Sat Jun 27, 2015 4:34 pm

cover
[TW] (WI)
artist
track title
[chartrun]
---------------------------------------------------------------------------------------------------------
50:NGS (26/52) - week ending June 28
Follow my playlist in SPOTIFY!!
--------------------------------------------------------------------------------------------------------
Image
Image [01] (01)
Ross Copperman
Hunger

[1]
---------------------------------------------------------------------------------------------------------
Image
Image [02] (05)
Brandon Flowers
I Can Change
[11-7-3-2-2]
---------------------------------------------------------------------------------------------------------
Image
Image [03] (13)
Muse
Dead Inside
[21-18-12-12-8-9-11-6-5-8-1-1-3]
---------------------------------------------------------------------------------------------------------
Image
Image [04] (12)
Florence + the Machine
Ship to Wreck
[2-1-1-1-3-5-4-6-1-2-3-4]
--------------------------------------------------------------------------------------------------------
Image
Image [05] (01)
Janet Jackson
No Sleeep

[5]
--------------------------------------------------------------------------------------------------------
Image
Image [06] (03)
Kelly Clarkson
Invincible
[10-6-6]
---------------------------------------------------------------------------------------------------------
Image
Image [07] (07)
Stereophonics
C'est La Vie
[3-1-2-3-5-5-7]
--------------------------------------------------------------------------------------------------------
Image
Image [08] (08)
Major Lazer
Lean On (featuring MØ & DJ Snake)
[47-37-35-28-26-20-11-8]
---------------------------------------------------------------------------------------------------------
Image
Image [09] (07)
Editors
No Harm
[1-3-3-6-6-7-9]
---------------------------------------------------------------------------------------------------------
Image
Image [10] (07)
Sia
California Dreamin'
[2-2-1-2-4-4-10]
--------------------------------------------------------------------------------------------------------
Image
Image [11] (03)
Simply Red
Shine On
[21-14-11]
--------------------------------------------------------------------------------------------------------
Image
Image [12] (09)
Saint Raymond
Come Back To You
[41-32-28-24-23-21-19-13-12]
---------------------------------------------------------------------------------------------------------
Image
Image [13] (12)
Jason Derülo
Want To Want Me
[49-19-13-15-12-10-9-7-5-7-10-13]
--------------------------------------------------------------------------------------------------------
Image
Image [14] (02)
The Weeknd
Can't Feel My Face
[17-14]
---------------------------------------------------------------------------------------------------------
Image
Image [15] (10)
James Bay
Let It Go
[8-5-4-7-8-10-9-8-8-15]
---------------------------------------------------------------------------------------------------------
Image
Image [16] (09)
Jessie J
Flashlight
[49-40-34-30-8-10-11-9-16]
--------------------------------------------------------------------------------------------------------
Image
Image [17] (02)
Beck
Dreams
[27-17]
--------------------------------------------------------------------------------------------------------
Image
Image [18] (01)
Editors
Marching Orders

[18]
---------------------------------------------------------------------------------------------------------
Image
Image [19] (11)
Mumford & Sons
The Wolf
[3-2-3-1-4-5-4-4-9-12-19]
--------------------------------------------------------------------------------------------------------
Image
Image [20] (05)
twenty one pilots
Stressed Out
[35-32-31-24-20]
---------------------------------------------------------------------------------------------------------
Image
Image [21] (09)
Of Monsters and Men
I of the Storm
[2-2-6-7-9-12-14-15-21]
--------------------------------------------------------------------------------------------------------
Image
Image [22] (04)
Kodaline
Ready
[30-27-20-22]
---------------------------------------------------------------------------------------------------------
Image
Image [23] (15)
Of Monsters and Men
Crystals
[39-16-9-10-10-11-12-10-13-10-13-14-16-19-23]
---------------------------------------------------------------------------------------------------------
Image
Image [24] (06)
Adam Lambert
Underground
[28-14-13-13-16-24]
--------------------------------------------------------------------------------------------------------
Image
Image [25] (08)
Miguel
Coffee (F***ing) (featuring Wale)
[45-38-34-34-33-34-30-25]
--------------------------------------------------------------------------------------------------------
Image
Image [26] (06)
Florence + the Machine
Delilah
[26-26-23-24-22-26]
--------------------------------------------------------------------------------------------------------
Image
Image [27] (03)
The Weeknd
The Hills
[33-28-27]
--------------------------------------------------------------------------------------------------------
Image
Image [28] (10)
Mumford & Sons
Snake Eyes
[26-18-15-19-21-27-18-17-21-28]
---------------------------------------------------------------------------------------------------------
Image
Image [29] (06)
Maroon 5
This Summer's Gonna Hurt Like A Motherf****r
[13-12-11-12-18-29]
--------------------------------------------------------------------------------------------------------
Image
Image [30] (05)
A$AP Rocky
Everyday (Featuring Rod Stewart, Miguel & Mark Ronson)
[42-39-37-31-30]
--------------------------------------------------------------------------------------------------------
Image
Image [31] (04)
Madonna
Bitch I'm Madonna (featuring Nicki Minaj)
[38-38-34-31]
---------------------------------------------------------------------------------------------------------
Image
Image [32] (13)
Echosmith
Bright
[46-42-20-14-11-11-14-16-17-20-23-25-32]
---------------------------------------------------------------------------------------------------------
Image
Image [33] (14)
Florence + the Machine
St Jude
[5-12-7-8-15-17-17-24-22-29-15-15-23-33]
---------------------------------------------------------------------------------------------------------
Image
Image [34] (15)
AWOLNATION
Hollow Moon (Bad Wolf)
[48-40-20-13-7-6-6-6-8-14-15-16-18-26-34]
--------------------------------------------------------------------------------------------------------
Image
Image [35] (03)
Leona Lewis
Fire Under My Feet
[42-40-35]
---------------------------------------------------------------------------------------------------------
Image
Image [36] (14)
Brandon Flowers
Can't Deny My Love
[38-32-28-28-10-10-7-12-12-18-17-26-29-36]
--------------------------------------------------------------------------------------------------------
Image
Image [37] (16)
Muse
Psycho
[36-20-4-2-4-4-9-14-14-18-20-24-28-25-32-37]
--------------------------------------------------------------------------------------------------------
Image
Image [38] (10)
Adam Lambert
Ghost Town
[50-45-43-40-38-38-36-41-41-38]
--------------------------------------------------------------------------------------------------------
Image
Image [39] (13)
Marina & the Diamonds
Forget
[44-39-37-35-28-19-20-23-21-27-28-33-39]
--------------------------------------------------------------------------------------------------------
Image
Image [40] (03)
Natalie La Rose
Somebody (Featuring Jeremih)
[46-42-40]
---------------------------------------------------------------------------------------------------------
Image
Image [41] (17)
Kodaline
The One
[11-10-12-14-8-8-6-4-4-5-9-11-16-24-30-35-41]
---------------------------------------------------------------------------------------------------------
Image
Image [42] (16)
Mumford & Sons
Believe
[1-1-2-4-6-9-5-9-13-16-18-22-29-32-38-42]
--------------------------------------------------------------------------------------------------------
Image
Image [43] (01)
Foals
What Went Down

[43]
---------------------------------------------------------------------------------------------------------
Image
Image [44] (20)
Florence + the Machine
What Kind of Man
[1-1-3-2-7-6-6-10-5-11-17-19-22-27-31-37-19-22-36-44]
--------------------------------------------------------------------------------------------------------
Image
Image [45] (13)
Little Big Town
Girl Crush
[50-46-41-23-16-16-15-15-19-25-36-39-45]
--------------------------------------------------------------------------------------------------------
Image
Image [46] (01)
Nate Ruess
Nothing Without Love

[46]
--------------------------------------------------------------------------------------------------------
Image
Image [47] (11)
Brandon Flowers
Still Want You
[46-41-27-24-22-17-20-22-29-37-47]
---------------------------------------------------------------------------------------------------------
Image
Image [48] (18)
Ed Sheeran & Rudimental
Bloodstream
[4-8-14-11-11-16-12-14-22-30-28-33-40-40-40-45-46-48]
--------------------------------------------------------------------------------------------------------
Image
Image [49] (02)
Hurts
Some Kind of Heaven
[50-49]
---------------------------------------------------------------------------------------------------------
Image
Image [50] (16)
Hozier
Someone New
[4-3-7-5-9-13-19-21-18-23-29-33-35-40-45-50]
---------------------------------------------------------------------------------------------------------
OUT
--------------------------------------------------------------------------------------------------------
[43] (09)
Rihanna
American Oxygen
[43-25-21-21-19-25-34-39-43]
--------------------------------------------------------------------------------------------------------
[44] (05)
Noel Gallagher's High Flying Birds
Riverman
[37-31-31-35-44]
---------------------------------------------------------------------------------------------------------
[47] (16)
Madonna
Ghosttown
[4-2-2-3-3-1-2-3-7-8-17-25-32-41-43-47]
--------------------------------------------------------------------------------------------------------
[48] (04)
Prince
Baltimore (featuring Eryn Allen Kane)
[47-48-49-48]
---------------------------------------------------------------------------------------------------------
[49] (12)
Iggy Azalea
Trouble (featuring Jennifer Hudson)
[49-48-43-30-32-26-25-27-30-37-44-49]
---------------------------------------------------------------------------------------------------------
User avatar
LittleArsonist
Personal Assistant
 
Posts: 939
Joined: Wed Jan 14, 2004

Postby Tansike » Wed Jul 01, 2015 6:44 am

Love the success for "Lean On" 8-) I'm surprised at how stable Kelly is, but good for her. I also have to check out "No Sleeep"... seems to be a good song from what i've read :)
User avatar
Tansike
Legend
 
Posts: 44325
Joined: Sat Jan 28, 2012
Location: Switzerland

Postby RalphyS » Wed Jul 01, 2015 2:58 pm

Big fan of the new entries by Editors & Foals, from Nate Ruess I like "Ahha" much better than this one, the new Janet and your number 1 couldn't convince me on first listen!
User avatar
RalphyS
Manager
 
Posts: 1093
Joined: Tue Apr 13, 2010
Location: Limburg, The Netherlands

Postby LittleArsonist » Fri Jul 03, 2015 8:17 pm

Tansike wrote: I also have to check out "No Sleeep"... seems to be a good song from what i've read :)
I always loved her more-r&b-oriented songs rather than her pop ones...so glad this time she chose an r&b track as lead single of the new album :D
User avatar
LittleArsonist
Personal Assistant
 
Posts: 939
Joined: Wed Jan 14, 2004

Postby LittleArsonist » Fri Jul 03, 2015 8:19 pm

RalphyS wrote:Big fan of the new entries by Editors & Foals, from Nate Ruess I like "Ahha" much better than this one, the new Janet and your number 1 couldn't convince me on first listen!
I'm starting to appreciate Nate Ruess solo album just now that it was fully released ...lot of interesting tracks, including the duet with Beck! :o
User avatar
LittleArsonist
Personal Assistant
 
Posts: 939
Joined: Wed Jan 14, 2004

Postby LittleArsonist » Sun Jul 05, 2015 4:53 pm

cover
[TW] (WI)
artist
track title
[chartrun]
---------------------------------------------------------------------------------------------------------
50:NGS (27/52) - week ending July 5
Follow my playlist in SPOTIFY!!
---------------------------------------------------------------------------------------------------------
Image
Image [01] (02)
Janet Jackson
No Sleeep
[5-1]
---------------------------------------------------------------------------------------------------------
Image
Image [02] (02)
Ross Copperman
Hunger
[1-2]
---------------------------------------------------------------------------------------------------------
Image
Image [03] (12)
Mumford & Sons
The Wolf
[3-2-3-1-4-5-4-4-9-12-19-3]
---------------------------------------------------------------------------------------------------------
Image
Image [04] (06)
Brandon Flowers
I Can Change
[11-7-3-2-2-4]
---------------------------------------------------------------------------------------------------------
Image
Image [05] (14)
Muse
Dead Inside
[21-18-12-12-8-9-11-6-5-8-1-1-3-5]
---------------------------------------------------------------------------------------------------------
Image
Image [06] (09)
Major Lazer
Lean On (featuring MØ & DJ Snake)
[47-37-35-28-26-20-11-8-6]
---------------------------------------------------------------------------------------------------------
Image
Image [07] (01)
Rachel Platten
Fight Song

[7]
---------------------------------------------------------------------------------------------------------
Image
Image [08] (13)
Florence + the Machine
Ship to Wreck
[2-1-1-1-3-5-4-6-1-2-3-4-8]
---------------------------------------------------------------------------------------------------------
Image
Image [09] (03)
The Weeknd
Can't Feel My Face
[17-14-9]
---------------------------------------------------------------------------------------------------------
Image
Image [10] (04)
Kelly Clarkson
Invincible
[10-6-6-10]
---------------------------------------------------------------------------------------------------------
Image
Image [11] (08)
Stereophonics
C'est La Vie
[3-1-2-3-5-5-7-11]
---------------------------------------------------------------------------------------------------------
Image
Image [12] (04)
Simply Red
Shine On
[21-14-11-12]
---------------------------------------------------------------------------------------------------------
Image
Image [13] (03)
Beck
Dreams
[27-17-13]
---------------------------------------------------------------------------------------------------------
Image
Image [14] (08)
Editors
No Harm
[1-3-3-6-6-7-9-14]
---------------------------------------------------------------------------------------------------------
Image
Image [15] (10)
Saint Raymond
Come Back To You
[41-32-28-24-23-21-19-13-12-15]
---------------------------------------------------------------------------------------------------------
Image
Image [16] (08)
Sia
California Dreamin'
[2-2-1-2-4-4-10-16]
---------------------------------------------------------------------------------------------------------
Image
Image [17] (06)
twenty one pilots
Stressed Out
[35-32-31-24-20-17]
---------------------------------------------------------------------------------------------------------
Image
Image [18] (02)
Editors
Marching Orders
[18-18]
---------------------------------------------------------------------------------------------------------
Image
Image [19] (13)
Jason Derülo
Want to Want Me
[49-19-13-15-12-10-9-7-5-7-10-13-19]
---------------------------------------------------------------------------------------------------------
Image
Image [20] (11)
James Bay
Let It Go
[8-5-4-7-8-10-9-8-8-15-20]
---------------------------------------------------------------------------------------------------------
Image
Image [21] (05)
Kodaline
Ready
[30-27-20-22-21]
---------------------------------------------------------------------------------------------------------
Image
Image [22] (09)
Miguel
Coffee (F***ing) (featuring Wale)
[45-38-34-34-33-34-30-25-22]
---------------------------------------------------------------------------------------------------------
Image
Image [23] (10)
Jessie J
Flashlight
[49-40-34-30-8-10-11-9-16-23]
---------------------------------------------------------------------------------------------------------
Image
Image [24] (02)
Nate Ruess
Nothing Without Love
[46-24]
---------------------------------------------------------------------------------------------------------
Image
Image [25] (10)
Of Monsters and Men
I of the Storm
[2-2-6-7-9-12-14-15-21-25]
---------------------------------------------------------------------------------------------------------
Image
Image [26] (11)
Mumford & Sons
Snake Eyes
[26-18-15-19-21-27-18-17-21-28-26]
---------------------------------------------------------------------------------------------------------
Image
Image [27] (04)
The Weeknd
The Hills
[33-28-27-27]
---------------------------------------------------------------------------------------------------------
Image
Image [28] (16)
Of Monsters and Men
Crystals
[39-16-9-10-10-11-12-10-13-10-13-14-16-19-23-28]
---------------------------------------------------------------------------------------------------------
Image
Image [29] (07)
Maroon 5
This Summer's Gonna Hurt Like A Motherf****r
[13-12-11-12-18-29-29]
---------------------------------------------------------------------------------------------------------
Image
Image [30] (06)
A$AP Rocky
Everyday (Featuring Rod Stewart, Miguel & Mark Ronson)
[42-39-37-31-30-30]
---------------------------------------------------------------------------------------------------------
Image
Image [31] (07)
Adam Lambert
Underground
[28-14-13-13-16-24-31]
---------------------------------------------------------------------------------------------------------
Image
Image [32] (04)
Leona Lewis
Fire Under My Feet
[42-40-35-32]
---------------------------------------------------------------------------------------------------------
Image
Image [33] (05)
Madonna
Bitch I'm Madonna (featuring Nicki Minaj)
[38-38-34-31-33]
---------------------------------------------------------------------------------------------------------
Image
Image [34] (11)
Adam Lambert
Ghost Town
[50-45-43-40-38-38-36-41-41-38-34]
---------------------------------------------------------------------------------------------------------
Image
Image [35] (07)
Florence + the Machine
Delilah
[26-26-23-24-22-26-35]
---------------------------------------------------------------------------------------------------------
Image
Image [36] (14)
Echosmith
Bright
[46-42-20-14-11-11-14-16-17-20-23-25-32-36]
---------------------------------------------------------------------------------------------------------
Image
Image [37] (02)
Foals
What Went Down
[43-37]
---------------------------------------------------------------------------------------------------------
Image
Image [38] (16)
AWOLNATION
Hollow Moon (Bad Wolf)
[48-40-20-13-7-6-6-6-8-14-15-16-18-26-34-38]
---------------------------------------------------------------------------------------------------------
Image
Image [39] (04)
Natalie La Rose
Somebody (Featuring Jeremih)
[46-42-40-39]
---------------------------------------------------------------------------------------------------------
Image
Image [40] (17)
Mumford & Sons
Believe
[1-1-2-4-6-9-5-9-13-16-18-22-29-32-38-42-40]
---------------------------------------------------------------------------------------------------------
Image
Image [41] (17)
Muse
Psycho
[36-20-4-2-4-4-9-14-14-18-20-24-28-25-32-37-41]
---------------------------------------------------------------------------------------------------------
Image
Image [42] (15)
Florence + the Machine
St Jude
[5-12-7-8-15-17-17-24-22-29-15-15-23-33-42]
---------------------------------------------------------------------------------------------------------
Image
Image [43] (17)
Hozier
Someone New
[4-3-7-5-9-13-19-21-18-23-29-33-35-40-45-50-43]
---------------------------------------------------------------------------------------------------------
Image
Image [44] (15)
Brandon Flowers
Can't Deny My Love
[38-32-28-28-10-10-7-12-12-18-17-26-29-36-44]
---------------------------------------------------------------------------------------------------------
Image
Image [45] (18)
Kodaline
The One
[11-10-12-14-8-8-6-4-4-5-9-11-16-24-30-35-41-45]
---------------------------------------------------------------------------------------------------------
Image
Image [46] (01)
AWOLNATION
I Am

[46]
---------------------------------------------------------------------------------------------------------
Image
Image [47] (14)
Marina & the Diamonds
Forget
[44-39-37-35-28-19-20-23-21-27-28-33-39-47]
---------------------------------------------------------------------------------------------------------
Image
Image [48] (01)
Peaches
Light In Places

[48]
---------------------------------------------------------------------------------------------------------
Image
Image [49] (01)
Rob Thomas
Trust You

[49]
---------------------------------------------------------------------------------------------------------
Image
Image [50] (01)
Pharrell Williams
Freedom

[50]
---------------------------------------------------------------------------------------------------------
OUT
---------------------------------------------------------------------------------------------------------
[44] (20)
Florence + the Machine
What Kind of Man
[1-1-3-2-7-6-6-10-5-11-17-19-22-27-31-37-19-22-36-44]
---------------------------------------------------------------------------------------------------------
[45] (13)
Little Big Town
Girl Crush
[50-46-41-23-16-16-15-15-19-25-36-39-45]
---------------------------------------------------------------------------------------------------------
[47] (11)
Brandon Flowers
Still Want You
[46-41-27-24-22-17-20-22-29-37-47]
---------------------------------------------------------------------------------------------------------
[48] (18)
Ed Sheeran & Rudimental
Bloodstream
[4-8-14-11-11-16-12-14-22-30-28-33-40-40-40-45-46-48]
---------------------------------------------------------------------------------------------------------
[49] (02)
Hurts
Some Kind of Heaven
[50-49]
---------------------------------------------------------------------------------------------------------
User avatar
LittleArsonist
Personal Assistant
 
Posts: 939
Joined: Wed Jan 14, 2004

Postby Tansike » Wed Jul 08, 2015 10:35 am

Okay, so i checked your current #1 out and it's nice, but it didn't impress me at all. Maybe it's a grower?
But i think i like her uptempo songs more (love "Feedback"!)

Good debut for Rachel Platten. Heard her song for the first time on sunday and it was pretty good.
Also great to see The Weeknd in the Top10, heard his song for the first time on sunday too and can't forget it somehow... in a positive way. He's smashing out of a sudden which is cool too!
User avatar
Tansike
Legend
 
Posts: 44325
Joined: Sat Jan 28, 2012
Location: Switzerland

Postby navi » Wed Jul 08, 2015 1:00 pm

Tansike wrote:Okay, so i checked your current #1 out and it's nice, but it didn't impress me at all. Maybe it's a grower?
This,
if i'm gonna choose between this and last week # 1, Ross wins.
Expecting much faster climb up for Beck and Foals.
Best new entry for this week (for me) are AWOLNATION.
ps
Have a tip for you (try it), hope you like it,
Cape Cub - Swim
My year(s) in lists by Ivan (2008 - 2013)
User avatar
navi
Legend
 
Posts: 10122
Joined: Wed Aug 14, 2013
Location: Zagreb/Croatia

Postby RalphyS » Fri Jul 10, 2015 12:45 pm

Not a fan of the top 2 (and Major Lazer), but in most parts very decent hitlists, best new entry by far: Rachel Platten!
User avatar
RalphyS
Manager
 
Posts: 1093
Joined: Tue Apr 13, 2010
Location: Limburg, The Netherlands

Postby LittleArsonist » Mon Jul 13, 2015 8:22 pm

thanks to all for the comments, guys....this week I'm SO VERY late with the update...I didn't even make it for the forum overall chart :o

anyway last week chart soon
User avatar
LittleArsonist
Personal Assistant
 
Posts: 939
Joined: Wed Jan 14, 2004

Postby LittleArsonist » Mon Jul 13, 2015 8:39 pm

cover
[TW] (WI)
artist
track title
[chartrun]
---------------------------------------------------------------------------------------------------------
50:NGS (28/52) - week ending July 12
Follow my playlist in SPOTIFY!!
---------------------------------------------------------------------------------------------------------

---------------------------------------------------------------------------------------------------------
Image
Image [01] (03)
Janet Jackson
No Sleeep
[5-1-1]
---------------------------------------------------------------------------------------------------------
Image
Image [02] (02)
Rachel Platten
Fight Song
[7-2]
---------------------------------------------------------------------------------------------------------
Image
Image [03] (03)
Ross Copperman
Hunger
[1-2-3]
---------------------------------------------------------------------------------------------------------
Image
Image [04] (10)
Major Lazer
Lean On (featuring MØ & DJ Snake)
[47-37-35-28-26-20-11-8-6-4]
---------------------------------------------------------------------------------------------------------
Image
Image [05] (04)
The Weeknd
Can't Feel My Face
[17-14-9-5]
---------------------------------------------------------------------------------------------------------
Image
Image [06] (13)
Mumford & Sons
The Wolf
[3-2-3-1-4-5-4-4-9-12-19-3-6]
---------------------------------------------------------------------------------------------------------
Image
Image [07] (07)
Brandon Flowers
I Can Change
[11-7-3-2-2-4-7]
---------------------------------------------------------------------------------------------------------
Image
Image [08] (02)
AWOLNATION
I Am
[46-8]
---------------------------------------------------------------------------------------------------------
Image
Image [09] (09)
Stereophonics
C'est La Vie
[3-1-2-3-5-5-7-11-9]
---------------------------------------------------------------------------------------------------------
Image
Image [10] (15)
Muse
Dead Inside
[21-18-12-12-8-9-11-6-5-8-1-1-3-5-10]
---------------------------------------------------------------------------------------------------------
Image
Image [11] (04)
Beck
Dreams
[27-17-13-11]
---------------------------------------------------------------------------------------------------------
Image
Image [12] (05)
Simply Red
Shine On
[21-14-11-12-12]
---------------------------------------------------------------------------------------------------------
Image
Image [13] (14)
Florence + the Machine
Ship to Wreck
[2-1-1-1-3-5-4-6-1-2-3-4-8-13]
---------------------------------------------------------------------------------------------------------
Image
Image [14] (11)
Saint Raymond
Come Back To You
[41-32-28-24-23-21-19-13-12-15-14]
---------------------------------------------------------------------------------------------------------
Image
Image [15] (07)
twenty one pilots
Stressed Out
[35-32-31-24-20-17-15]
---------------------------------------------------------------------------------------------------------
Image
Image [16] (05)
Kelly Clarkson
Invincible
[10-6-6-10-16]
---------------------------------------------------------------------------------------------------------
Image
Image [17] (03)
Editors
Marching Orders
[18-18-17]
---------------------------------------------------------------------------------------------------------
Image
Image [18] (03)
Nate Ruess
Nothing Without Love
[46-24-18]
---------------------------------------------------------------------------------------------------------
Image
Image [19] (09)
Sia
California Dreamin'
[2-2-1-2-4-4-10-16-19]
---------------------------------------------------------------------------------------------------------
Image
Image [20] (09)
Editors
No Harm
[1-3-3-6-6-7-9-14-20]
---------------------------------------------------------------------------------------------------------
Image
Image [21] (14)
Jason Derülo
Want to Want Me
[49-19-13-15-12-10-9-7-5-7-10-13-19-21]
---------------------------------------------------------------------------------------------------------
Image
Image [22] (10)
Miguel
Coffee (F***ing) (featuring Wale)
[45-38-34-34-33-34-30-25-22-22]
---------------------------------------------------------------------------------------------------------
Image
Image [23] (01)
X Ambassadors
Renegades

[23]
---------------------------------------------------------------------------------------------------------
Image
Image [24] (12)
James Bay
Let It Go
[8-5-4-7-8-10-9-8-8-15-20-24]
---------------------------------------------------------------------------------------------------------
Image
Image [25] (06)
Kodaline
Ready
[30-27-20-22-21-25]
---------------------------------------------------------------------------------------------------------
Image
Image [26] (05)
The Weeknd
The Hills
[33-28-27-27-26]
---------------------------------------------------------------------------------------------------------
Image
Image [27] (11)
Of Monsters and Men
I of the Storm
[2-2-6-7-9-12-14-15-21-25-27]
---------------------------------------------------------------------------------------------------------
Image
Image [28] (11)
Jessie J
Flashlight
[49-40-34-30-8-10-11-9-16-23-28]
---------------------------------------------------------------------------------------------------------
Image
Image [29] (07)
A$AP Rocky
Everyday (Featuring Rod Stewart, Miguel & Mark Ronson)
[42-39-37-31-30-30-29]
---------------------------------------------------------------------------------------------------------
Image
Image [30] (05)
Leona Lewis
Fire Under My Feet
[42-40-35-32-30]
---------------------------------------------------------------------------------------------------------
Image
Image [31] (17)
Of Monsters and Men
Crystals
[39-16-9-10-10-11-12-10-13-10-13-14-16-19-23-28-31]
---------------------------------------------------------------------------------------------------------
Image
Image [32] (12)
Mumford & Sons
Snake Eyes
[26-18-15-19-21-27-18-17-21-28-26-32]
---------------------------------------------------------------------------------------------------------
Image
Image [33] (08)
Adam Lambert
Underground
[28-14-13-13-16-24-31-33]
---------------------------------------------------------------------------------------------------------
Image
Image [34] (01)
The Fratellis
Baby, Don't You Lie To Me!

[34]
---------------------------------------------------------------------------------------------------------
Image
Image [35] (03)
Foals
What Went Down
[43-37-35]
---------------------------------------------------------------------------------------------------------
Image
Image [36] (08)
Maroon 5
This Summer's Gonna Hurt Like A Motherf****r
[13-12-11-12-18-29-29-36]
---------------------------------------------------------------------------------------------------------
Image
Image [37] (05)
Natalie La Rose
Somebody (Featuring Jeremih)
[46-42-40-39-37]
---------------------------------------------------------------------------------------------------------
Image
Image [38] (12)
Adam Lambert
Ghost Town
[50-45-43-40-38-38-36-41-41-38-34-38]
---------------------------------------------------------------------------------------------------------
Image
Image [39] (08)
Florence + the Machine
Delilah
[26-26-23-24-22-26-35-39]
---------------------------------------------------------------------------------------------------------
Image
Image [40] (17)
AWOLNATION
Hollow Moon (Bad Wolf)
[48-40-20-13-7-6-6-6-8-14-15-16-18-26-34-38-40]
---------------------------------------------------------------------------------------------------------
Image
Image [41] (15)
Echosmith
Bright
[46-42-20-14-11-11-14-16-17-20-23-25-32-36-41]
---------------------------------------------------------------------------------------------------------
Image
Image [42] (06)
Madonna
Bitch I'm Madonna (featuring Nicki Minaj)
[38-38-34-31-33-42]
---------------------------------------------------------------------------------------------------------
Image
Image [43] (18)
Mumford & Sons
Believe
[1-1-2-4-6-9-5-9-13-16-18-22-29-32-38-42-40-43]
---------------------------------------------------------------------------------------------------------
Image
Image [44] (01)
Lunchmoney Lewis
Bills

[44]
---------------------------------------------------------------------------------------------------------
Image
Image [45] (02)
Peaches
Light In Places
[48-45]
---------------------------------------------------------------------------------------------------------
Image
Image [46] (19)
Kodaline
The One
[11-10-12-14-8-8-6-4-4-5-9-11-16-24-30-35-41-45-46]
---------------------------------------------------------------------------------------------------------
Image
Image [47] (18)
Muse
Psycho
[36-20-4-2-4-4-9-14-14-18-20-24-28-25-32-37-41-47]
---------------------------------------------------------------------------------------------------------
Image
Image [48] (18)
Hozier
Someone New
[4-3-7-5-9-13-19-21-18-23-29-33-35-40-45-50-43-48]
---------------------------------------------------------------------------------------------------------
Image
Image [49] (02)
Pharrell Williams
Freedom
[50-49]
---------------------------------------------------------------------------------------------------------
Image
Image [50] (02)
Rihanna
Bitch Better Have My Money

[49 // 50]
---------------------------------------------------------------------------------------------------------
OUT
---------------------------------------------------------------------------------------------------------
[42] (15)
Florence + the Machine
St Jude
[5-12-7-8-15-17-17-24-22-29-15-15-23-33-42]
---------------------------------------------------------------------------------------------------------
[44] (15)
Brandon Flowers
Can't Deny My Love
[38-32-28-28-10-10-7-12-12-18-17-26-29-36-44]
---------------------------------------------------------------------------------------------------------
[47] (14)
Marina & the Diamonds
Forget
[44-39-37-35-28-19-20-23-21-27-28-33-39-47]
---------------------------------------------------------------------------------------------------------
[49] (01)
Rob Thomas
Trust You
[49]
---------------------------------------------------------------------------------------------------------
Last edited by LittleArsonist on Mon Jul 13, 2015 8:43 pm, edited 1 time in total.
User avatar
LittleArsonist
Personal Assistant
 
Posts: 939
Joined: Wed Jan 14, 2004

Postby LittleArsonist » Mon Jul 13, 2015 8:42 pm

Tansike wrote:Okay, so i checked your current #1 out and it's nice, but it didn't impress me at all. Maybe it's a grower?
But i think i like her uptempo songs more (love "Feedback"!)
This song reminds me a LOT of "janet." and "The Velvet Rope" era... it's more r&b and less pop than All For You, 20 Y.O. or Discipline lead singles were. Probably that's because I love it terribly much! :)

Good debut for Rachel Platten. Heard her song for the first time on sunday and it was pretty good.
listened to it a lot from the US charts but hit the right notes in my heart just recently... :o

Also great to see The Weeknd in the Top10, heard his song for the first time on sunday too and can't forget it somehow... in a positive way. He's smashing out of a sudden which is cool too!
one of this summer catchier tracks for sure 8-) :wink:
User avatar
LittleArsonist
Personal Assistant
 
Posts: 939
Joined: Wed Jan 14, 2004

Return to Personal Charts