50:иgѕ w/e September 23 - power of the water

Moderators: JSparksFan, tdc2000, FreakyFlyBry

 

Postby LittleArsonist » Mon Jul 13, 2015 8:44 pm

RalphyS wrote:Not a fan of the top 2 (and Major Lazer), but in most parts very decent hitlists, best new entry by far: Rachel Platten!
well thanks a lot! :) Rachel rose to #2 this week...she's seriously a menace for Janet :lol:
User avatar
LittleArsonist
Personal Assistant
 
Posts: 933
Joined: Wed Jan 14, 2004

Postby LittleArsonist » Mon Jul 13, 2015 8:44 pm

navi wrote:Cape Cub - Swim
of course I liked your tip :o
User avatar
LittleArsonist
Personal Assistant
 
Posts: 933
Joined: Wed Jan 14, 2004

Postby navi » Tue Jul 14, 2015 11:40 am

LittleArsonist wrote:
navi wrote:Cape Cub - Swim
of course I liked your tip :o
Enough that might enters on your chart?

btw
X Ambassadors - Renegades - great one 8-)
LunchMoney Lewis - Bills - bad one :evil:
My year(s) in lists by Ivan (2008 - 2013)
User avatar
navi
Legend
 
Posts: 10003
Joined: Wed Aug 14, 2013
Location: Zagreb/Croatia

Postby Tansike » Wed Jul 15, 2015 9:58 am

LittleArsonist wrote:This song reminds me a LOT of "janet." and "The Velvet Rope" era... it's more r&b and less pop than All For You, 20 Y.O. or Discipline lead singles were. Probably that's because I love it terribly much! :)
...
listened to it a lot from the US charts but hit the right notes in my heart just recently... :o
To be honest i'm not familiar with Janet's work, i only know her most famous singles, plus R&B is far away from being my favorite genre, so that's surely why i'm not that into her new single (yet?).

Yes, i can see "Fight Song" being one of those songs that have a big effect if one is in the right mood...

...

Love the climbs for The Weeknd and Major Lazer this week. I'm currently in love with "Can't Feel My Face", so i'm really excited for the upcoming album :D Also good to see "The Hills" there too, as i like that one as well. Did you hear "Often" too?

Finally got into Leona Lewis' new single and now i'm shocked at how much it flopped, because it sounds like a big hit to me!
Glad it's still rising a little bit on your charts.
User avatar
Tansike
Legend
 
Posts: 43896
Joined: Sat Jan 28, 2012
Location: Switzerland

Postby LittleArsonist » Fri Jul 17, 2015 9:53 am

navi wrote:
LittleArsonist wrote:
navi wrote:Cape Cub - Swim
of course I liked your tip :o
Enough that might enters on your chart?
good chances :D

btw
LunchMoney Lewis - Bills - bad one :evil:
blame it on the summer :lol:
User avatar
LittleArsonist
Personal Assistant
 
Posts: 933
Joined: Wed Jan 14, 2004

Postby LittleArsonist » Fri Jul 17, 2015 9:55 am

Tansike wrote:
To be honest i'm not familiar with Janet's work, i only know her most famous singles, plus R&B is far away from being my favorite genre, so that's surely why i'm not that into her new single (yet?).
oh!!! this explains! :)

Did you hear "Often" too?
same story as MATD's Immortal...for some reason it never entered my chart :o

Finally got into Leona Lewis' new single and now i'm shocked at how much it flopped, because it sounds like a big hit to me!
I know that Thunder is scheduled to be released already as second single... weird public reaction to this new album so far :roll:
User avatar
LittleArsonist
Personal Assistant
 
Posts: 933
Joined: Wed Jan 14, 2004

Postby LittleArsonist » Fri Jul 17, 2015 10:06 am

cover
[TW] (WI)
artist
track title
[chartrun]
---------------------------------------------------------------------------------------------------------
50:NGS (29/52) - week ending July 19
---------------------------------------------------------------------------------------------------------

---------------------------------------------------------------------------------------------------------
Image
Image [01] (04)
Janet Jackson
No Sleeep
[5-1-1-1]
---------------------------------------------------------------------------------------------------------
Image
Image [02] (02)
Rachel Platten
Fight Song
[7-2-2]
---------------------------------------------------------------------------------------------------------
Image
Image [03] (01)
U2
Song for Someone

[3]
---------------------------------------------------------------------------------------------------------
Image
Image [04] (05)
The Weeknd
Can't Feel My Face
[17-14-9-5-4]
---------------------------------------------------------------------------------------------------------
Image
Image [05] (03)
AWOLNATION
I Am
[46-8-5]
---------------------------------------------------------------------------------------------------------
Image
Image [06] (11)
Major Lazer
Lean On (featuring MØ & DJ Snake)
[47-37-35-28-26-20-11-8-6-4-6]
---------------------------------------------------------------------------------------------------------
Image
Image [07] (04)
Ross Copperman
Hunger
[1-2-3-7]
---------------------------------------------------------------------------------------------------------
Image
Image [08] (05)
Beck
Dreams
[27-17-13-11-8]
---------------------------------------------------------------------------------------------------------
Image
Image [09] (08)
twenty one pilots
Stressed Out
[35-32-31-24-20-17-15-9]
---------------------------------------------------------------------------------------------------------
Image
Image [10] (02)
X Ambassadors
Renegades
[23-10]
---------------------------------------------------------------------------------------------------------
Image
Image [11] (14)
Mumford & Sons
The Wolf
[3-2-3-1-4-5-4-4-9-12-19-3-6-11]
---------------------------------------------------------------------------------------------------------
Image
Image [12] (16)
Muse
Dead Inside
[21-18-12-12-8-9-11-6-5-8-1-1-3-5-10-12]
---------------------------------------------------------------------------------------------------------
Image
Image [13] (08)
Brandon Flowers
I Can Change
[11-7-3-2-2-4-7-13]
---------------------------------------------------------------------------------------------------------
Image
Image [14] (06)
Simply Red
Shine On
[21-14-11-12-12-14]
---------------------------------------------------------------------------------------------------------
Image
Image [15] (12)
Saint Raymond
Come Back to You
[41-32-28-24-23-21-19-13-12-15-14-15]
---------------------------------------------------------------------------------------------------------
Image
Image [16] (04)
Editors
Marching Orders
[18-18-17-16]
---------------------------------------------------------------------------------------------------------
Image
Image [17] (04)
Nate Ruess
Nothing Without Love
[46-24-18-17]
---------------------------------------------------------------------------------------------------------
Image
Image [18] (10)
Stereophonics
C'est La Vie
[3-1-2-3-5-5-7-11-9-18]
---------------------------------------------------------------------------------------------------------
Image
Image [19] (06)
Kelly Clarkson
Invincible
[10-6-6-10-16-19]
---------------------------------------------------------------------------------------------------------
Image
Image [20] (15)
Florence + the Machine
Ship to Wreck
[2-1-1-1-3-5-4-6-1-2-3-4-8-13-20]
---------------------------------------------------------------------------------------------------------
Image
Image [21] (11)
Miguel
Coffee (F***ing) (featuring Wale)
[45-38-34-34-33-34-30-25-22-22-21]
---------------------------------------------------------------------------------------------------------
Image
Image [22] (09)
Maroon 5
This Summer's Gonna Hurt Like A Motherf****r
[13-12-11-12-18-29-29-36-22]
---------------------------------------------------------------------------------------------------------
Image
Image [23] (06)
The Weeknd
The Hills
[33-28-27-27-26-23]
---------------------------------------------------------------------------------------------------------
Image
Image [24] (02)
The Fratellis
Baby, Don't You Lie To Me!
[34-24]
---------------------------------------------------------------------------------------------------------
Image
Image [25] (10)
Sia
California Dreamin'
[2-2-1-2-4-4-10-16-19-25]
---------------------------------------------------------------------------------------------------------
Image
Image [26] (01)
The Vaccines
Dream Lover

[26]
---------------------------------------------------------------------------------------------------------
Image
Image [27] (15)
Jason Derülo
Want to Want Me
[49-19-13-15-12-10-9-7-5-7-10-13-19-21-27]
---------------------------------------------------------------------------------------------------------
Image
Image [28] (06)
Leona Lewis
Fire Under My Feet
[42-40-35-32-30-28]
---------------------------------------------------------------------------------------------------------
Image
Image [29] (07)
Kodaline
Ready
[30-27-20-22-21-25-29]
---------------------------------------------------------------------------------------------------------
Image
Image [30] (13)
James Bay
Let It Go
[8-5-4-7-8-10-9-8-8-15-20-24-30]
---------------------------------------------------------------------------------------------------------
Image
Image [31] (10)
Editors
No Harm
[1-3-3-6-6-7-9-14-20-31]
---------------------------------------------------------------------------------------------------------
Image
Image [32] (12)
Of Monsters and Men
I of the Storm
[2-2-6-7-9-12-14-15-21-25-27-32]
---------------------------------------------------------------------------------------------------------
Image
Image [33] (04)
Foals
What Went Down
[43-37-35-33]
---------------------------------------------------------------------------------------------------------
Image
Image [34] (12)
Jessie J
Flashlight
[49-40-34-30-8-10-11-9-16-23-28-34]
---------------------------------------------------------------------------------------------------------
Image
Image [35] (18)
Of Monsters and Men
Crystals
[39-16-9-10-10-11-12-10-13-10-13-14-16-19-23-28-31-35]
---------------------------------------------------------------------------------------------------------
Image
Image [36] (01)
Mark Ronson
I Can't Lose (featuring Keyone Starr)

[36]
---------------------------------------------------------------------------------------------------------
Image
Image [37] (02)
Lunchmoney Lewis
Bills
[44-37]
---------------------------------------------------------------------------------------------------------
Image
Image [38] (13)
Mumford & Sons
Snake Eyes
[26-18-15-19-21-27-18-17-21-28-26-32-38]
---------------------------------------------------------------------------------------------------------
Image
Image [39] (08)
A$AP Rocky
Everyday (Featuring Rod Stewart, Miguel & Mark Ronson)
[42-39-37-31-30-30-29-39]
---------------------------------------------------------------------------------------------------------
Image
Image [40] (18)
AWOLNATION
Hollow Moon (Bad Wolf)
[48-40-20-13-7-6-6-6-8-14-15-16-18-26-34-38-40-40]
---------------------------------------------------------------------------------------------------------
Image
Image [41] (09)
Adam Lambert
Underground
[28-14-13-13-16-24-31-33-41]
---------------------------------------------------------------------------------------------------------
Image
Image [42] (06)
Natalie La Rose
Somebody (Featuring Jeremih)
[46-42-40-39-37-42]
---------------------------------------------------------------------------------------------------------
Image
Image [43] (03)
Pharrell Williams
Freedom
[50-49-43]
---------------------------------------------------------------------------------------------------------
Image
Image [44] (09)
Florence + the Machine
Delilah
[26-26-23-24-22-26-35-39-44]
---------------------------------------------------------------------------------------------------------
Image
Image [45] (16)
Echosmith
Bright
[46-42-20-14-11-11-14-16-17-20-23-25-32-36-41-45]
---------------------------------------------------------------------------------------------------------
Image
Image [46] (03)
Rihanna
Bitch Better Have My Money
[49 // 50-46]
---------------------------------------------------------------------------------------------------------
Image
Image [47] (13)
Adam Lambert
Ghost Town
[50-45-43-40-38-38-36-41-41-38-34-38-47]
---------------------------------------------------------------------------------------------------------
Image
Image [48] (19)
Hozier
Someone New
[4-3-7-5-9-13-19-21-18-23-29-33-35-40-45-50-43-48-48]
---------------------------------------------------------------------------------------------------------
Image
Image [49] (19)
Mumford & Sons
Believe
[1-1-2-4-6-9-5-9-13-16-18-22-29-32-38-42-40-43-49]
---------------------------------------------------------------------------------------------------------
Image
Image [50] (20)
Kodaline
The One
[11-10-12-14-8-8-6-4-4-5-9-11-16-24-30-35-41-45-46-50]
---------------------------------------------------------------------------------------------------------
OUT
---------------------------------------------------------------------------------------------------------
[42] (06)
Madonna
Bitch I'm Madonna (featuring Nicki Minaj)
[38-38-34-31-33-42]
---------------------------------------------------------------------------------------------------------
[45] (02)
Peaches
Light In Places
[48-45]
---------------------------------------------------------------------------------------------------------
[47] (18)
Muse
Psycho
[36-20-4-2-4-4-9-14-14-18-20-24-28-25-32-37-41-47]
---------------------------------------------------------------------------------------------------------
User avatar
LittleArsonist
Personal Assistant
 
Posts: 933
Joined: Wed Jan 14, 2004

Postby RalphyS » Sat Jul 18, 2015 12:37 pm

Nice new entry for Mark Ronson!
User avatar
RalphyS
Manager
 
Posts: 1082
Joined: Tue Apr 13, 2010
Location: Limburg, The Netherlands

Postby navi » Tue Jul 21, 2015 12:55 pm

RalphyS wrote:Nice new entry for Mark Ronson!
And two much more nicer from U 2 and the Vaccines

ps where are the links?
My year(s) in lists by Ivan (2008 - 2013)
User avatar
navi
Legend
 
Posts: 10003
Joined: Wed Aug 14, 2013
Location: Zagreb/Croatia

Postby Tansike » Wed Jul 22, 2015 10:29 am

LittleArsonist wrote:
Did you hear "Often" too?
same story as MATD's Immortal...for some reason it never entered my chart :o
Oh but so this means you like it? :)

...

Nice debut for Mark Ronson's new single. It's kinda sad that everything completely flopped after "Uptown Funk" :-?
User avatar
Tansike
Legend
 
Posts: 43896
Joined: Sat Jan 28, 2012
Location: Switzerland

Postby navi » Fri Jul 31, 2015 12:49 pm

No update for last week :o
Looks like everybody's on the vacation
My year(s) in lists by Ivan (2008 - 2013)
User avatar
navi
Legend
 
Posts: 10003
Joined: Wed Aug 14, 2013
Location: Zagreb/Croatia

Postby navi » Thu Aug 20, 2015 12:07 pm

No update for a month :o
Farewell?
My year(s) in lists by Ivan (2008 - 2013)
User avatar
navi
Legend
 
Posts: 10003
Joined: Wed Aug 14, 2013
Location: Zagreb/Croatia

Postby LittleArsonist » Thu Aug 20, 2015 3:05 pm

cover
[TW] (WI)
artist
track title
[chartrun]
---------------------------------------------------------------------------------------------------------
50:NGS (30/52) - week ending July 26
---------------------------------------------------------------------------------------------------------

---------------------------------------------------------------------------------------------------------
Image
Image [01] (02)
U2
Song for Someone
[3-1]
---------------------------------------------------------------------------------------------------------
Image
Image [02] (05)
Janet Jackson
No Sleeep
[5-1-1-1-2]
---------------------------------------------------------------------------------------------------------
Image
Image [03] (04)
AWOLNATION
I Am
[46-8-5-3]
---------------------------------------------------------------------------------------------------------
Image
Image [04] (03)
Rachel Platten
Fight Song
[7-2-2-4]
---------------------------------------------------------------------------------------------------------
Image
Image [05] (09)
twenty one pilots
Stressed Out
[35-32-31-24-20-17-15-9-5]
---------------------------------------------------------------------------------------------------------
Image
Image [06] (06)
The Weeknd
Can't Feel My Face
[17-14-9-5-4-6]
---------------------------------------------------------------------------------------------------------
Image
Image [07] (03)
X Ambassadors
Renegades
[23-10-7]
---------------------------------------------------------------------------------------------------------
Image
Image [08] (06)
Beck
Dreams
[27-17-13-11-8-8]
---------------------------------------------------------------------------------------------------------
Image
Image [09] (05)
Editors
Marching Orders
[18-18-17-16-9]
---------------------------------------------------------------------------------------------------------
Image
Image [10] (12)
Major Lazer
Lean On (featuring MØ & DJ Snake)
[47-37-35-28-26-20-11-8-6-4-6-10]
---------------------------------------------------------------------------------------------------------
Image
Image [11] (05)
Ross Copperman
Hunger
[1-2-3-7-11]
---------------------------------------------------------------------------------------------------------
Image
Image [12] (03)
The Fratellis
Baby, Don't You Lie To Me!
[34-24-12]
---------------------------------------------------------------------------------------------------------
Image
Image [13] (13)
Saint Raymond
Come Back to You
[41-32-28-24-23-21-19-13-12-15-14-15-13]
---------------------------------------------------------------------------------------------------------
Image
Image [14] (07)
Simply Red
Shine On
[21-14-11-12-12-14-14]
---------------------------------------------------------------------------------------------------------
Image
Image [15] (09)
Brandon Flowers
I Can Change
[11-7-3-2-2-4-7-13-15]
---------------------------------------------------------------------------------------------------------
Image
Image [16] (05)
Nate Ruess
Nothing Without Love
[46-24-18-17-16]
---------------------------------------------------------------------------------------------------------
Image
Image [17] (02)
The Vaccines
Dream Lover
[26-17]
---------------------------------------------------------------------------------------------------------
Image
Image [18] (10)
Maroon 5
This Summer's Gonna Hurt Like A Motherf****r
[13-12-11-12-18-29-29-36-22-18]
---------------------------------------------------------------------------------------------------------
Image
Image [19] (15)
Mumford & Sons
The Wolf
[3-2-3-1-4-5-4-4-9-12-19-3-6-11-19]
---------------------------------------------------------------------------------------------------------
Image
Image [20] (12)
Miguel
Coffee (F***ing) (featuring Wale)
[45-38-34-34-33-34-30-25-22-22-21-20]
---------------------------------------------------------------------------------------------------------
Image
Image [21] (17)
Muse
Dead Inside
[21-18-12-12-8-9-11-6-5-8-1-1-3-5-10-12-21]
---------------------------------------------------------------------------------------------------------
Image
Image [22] (07)
Kelly Clarkson
Invincible
[10-6-6-10-16-19-22]
---------------------------------------------------------------------------------------------------------
Image
Image [23] (07)
The Weeknd
The Hills
[33-28-27-27-26-23-23]
---------------------------------------------------------------------------------------------------------
Image
Image [24] (11)
Stereophonics
C'est La Vie
[3-1-2-3-5-5-7-11-9-18-24]
---------------------------------------------------------------------------------------------------------
Image
Image [25] (11)
Sia
California Dreamin'
[2-2-1-2-4-4-10-16-19-25-25]
---------------------------------------------------------------------------------------------------------
Image
Image [26] (16)
Florence + the Machine
Ship to Wreck
[2-1-1-1-3-5-4-6-1-2-3-4-8-13-20-26]
---------------------------------------------------------------------------------------------------------
Image
Image [27] (01)
Leona Lewis
I Am

[27]
---------------------------------------------------------------------------------------------------------
Image
Image [28] (07)
Leona Lewis
Fire Under My Feet
[42-40-35-32-30-28-28]
---------------------------------------------------------------------------------------------------------
Image
Image [29] (05)
Foals
What Went Down
[43-37-35-33-29]
---------------------------------------------------------------------------------------------------------
Image
Image [30] (02)
Mark Ronson
I Can't Lose (featuring Keyone Starr)
[36-30]
---------------------------------------------------------------------------------------------------------
Image
Image [31] (14)
James Bay
Let It Go
[8-5-4-7-8-10-9-8-8-15-20-24-30-31]
---------------------------------------------------------------------------------------------------------
Image
Image [32] (08)
Kodaline
Ready
[30-27-20-22-21-25-29-32]
---------------------------------------------------------------------------------------------------------
Image
Image [33] (03)
Lunchmoney Lewis
Bills
[44-37-33]
---------------------------------------------------------------------------------------------------------
Image
Image [34] (16)
Jason Derülo
Want to Want Me
[49-19-13-15-12-10-9-7-5-7-10-13-19-21-27-34]
---------------------------------------------------------------------------------------------------------
Image
Image [35] (13)
Of Monsters and Men
I of the Storm
[2-2-6-7-9-12-14-15-21-25-27-32-35]
---------------------------------------------------------------------------------------------------------
Image
Image [36] (13)
Jessie J
Flashlight
[49-40-34-30-8-10-11-9-16-23-28-34-36]
---------------------------------------------------------------------------------------------------------
Image
Image [37] (11)
Editors
No Harm
[1-3-3-6-6-7-9-14-20-31-37]
---------------------------------------------------------------------------------------------------------
Image
Image [38] (01)
Hurts
Rolling Stone

[38]
---------------------------------------------------------------------------------------------------------
Image
Image [39] (09)
A$AP Rocky
Everyday (Featuring Rod Stewart, Miguel & Mark Ronson)
[42-39-37-31-30-30-29-39-39]
---------------------------------------------------------------------------------------------------------
Image
Image [40] (10)
Adam Lambert
Underground
[28-14-13-13-16-24-31-33-41-40]
---------------------------------------------------------------------------------------------------------
Image
Image [41] (19)
Of Monsters and Men
Crystals
[39-16-9-10-10-11-12-10-13-10-13-14-16-19-23-28-31-35-41]
---------------------------------------------------------------------------------------------------------
Image
Image [42] (14)
Mumford & Sons
Snake Eyes
[26-18-15-19-21-27-18-17-21-28-26-32-38-42]
---------------------------------------------------------------------------------------------------------
Image
Image [43] (04)
Pharrell Williams
Freedom
[50-49-43-43]
---------------------------------------------------------------------------------------------------------
Image
Image [44] (01)
Leona Lewis
Thunder

[44]
---------------------------------------------------------------------------------------------------------
Image
Image [45] (19)
AWOLNATION
Hollow Moon (Bad Wolf)
[48-40-20-13-7-6-6-6-8-14-15-16-18-26-34-38-40-40-45]
---------------------------------------------------------------------------------------------------------
Image
Image [46] (04)
Rihanna
Bitch Better Have My Money
[49 // 50-46-46]
---------------------------------------------------------------------------------------------------------
Image
Image [47] (10)
Florence + the Machine
Delilah
[26-26-23-24-22-26-35-39-44-47]
---------------------------------------------------------------------------------------------------------
Image
Image [48] (07)
Natalie La Rose
Somebody (Featuring Jeremih)
[46-42-40-39-37-42-48]
---------------------------------------------------------------------------------------------------------
Image
Image [49] (14)
Adam Lambert
Ghost Town
[50-45-43-40-38-38-36-41-41-38-34-38-47-49]
---------------------------------------------------------------------------------------------------------
Image
Image [50] (17)
Echosmith
Bright
[46-42-20-14-11-11-14-16-17-20-23-25-32-36-41-45-50]
---------------------------------------------------------------------------------------------------------
OUT
---------------------------------------------------------------------------------------------------------
[48] (19)
Hozier
Someone New
[4-3-7-5-9-13-19-21-18-23-29-33-35-40-45-50-43-48-48]
---------------------------------------------------------------------------------------------------------
[49] (19)
Mumford & Sons
Believe
[1-1-2-4-6-9-5-9-13-16-18-22-29-32-38-42-40-43-49]
---------------------------------------------------------------------------------------------------------
[50] (20)
Kodaline
The One
[11-10-12-14-8-8-6-4-4-5-9-11-16-24-30-35-41-45-46-50]
---------------------------------------------------------------------------------------------------------
User avatar
LittleArsonist
Personal Assistant
 
Posts: 933
Joined: Wed Jan 14, 2004

Postby LittleArsonist » Thu Aug 20, 2015 3:31 pm

cover
[TW] (WI)
artist
track title
[chartrun]
---------------------------------------------------------------------------------------------------------
50:NGS (31/52) - week ending August 2
---------------------------------------------------------------------------------------------------------

---------------------------------------------------------------------------------------------------------
Image
Image [01] (03)
U2
Song for Someone
[3-1-1]
---------------------------------------------------------------------------------------------------------
Image
Image [02] (05)
AWOLNATION
I Am
[46-8-5-3-2]
---------------------------------------------------------------------------------------------------------
Image
Image [03] (06)
Janet Jackson
No Sleeep
[5-1-1-1-2-3]
---------------------------------------------------------------------------------------------------------
Image
Image [04] (10)
twenty one pilots
Stressed Out
[35-32-31-24-20-17-15-9-5-4]
---------------------------------------------------------------------------------------------------------
Image
Image [05] (07)
The Weeknd
Can't Feel My Face
[17-14-9-5-4-6-5]
---------------------------------------------------------------------------------------------------------
Image
Image [06] (04)
X Ambassadors
Renegades
[23-10-7-6]
---------------------------------------------------------------------------------------------------------
Image
Image [07] (04)
Rachel Platten
Fight Song
[7-2-2-4-7]
---------------------------------------------------------------------------------------------------------
Image
Image [08] (06)
Editors
Marching Orders
[18-18-17-16-9-8]
---------------------------------------------------------------------------------------------------------
Image
Image [09] (07)
Beck
Dreams
[27-17-13-11-8-8-9]
---------------------------------------------------------------------------------------------------------
Image
Image [10] (13)
Major Lazer
Lean On (featuring MØ & DJ Snake)
[47-37-35-28-26-20-11-8-6-4-6-10-10]
---------------------------------------------------------------------------------------------------------
Image
Image [11] (04)
The Fratellis
Baby, Don't You Lie To Me!
[34-24-12-11]
---------------------------------------------------------------------------------------------------------
Image
Image [12] (03)
The Vaccines
Dream Lover
[26-17-12]
---------------------------------------------------------------------------------------------------------
Image
Image [13] (06)
Ross Copperman
Hunger
[1-2-3-7-11-13]
---------------------------------------------------------------------------------------------------------
Image
Image [14] (11)
Maroon 5
This Summer's Gonna Hurt Like A Motherf****r
[13-12-11-12-18-29-29-36-22-18-14]
---------------------------------------------------------------------------------------------------------
Image
Image [15] (08)
Kelly Clarkson
Invincible
[10-6-6-10-16-19-22-15]
---------------------------------------------------------------------------------------------------------
Image
Image [16] (14)
Saint Raymond
Come Back to You
[41-32-28-24-23-21-19-13-12-15-14-15-13-16]
---------------------------------------------------------------------------------------------------------
Image
Image [17] (10)
Brandon Flowers
I Can Change
[11-7-3-2-2-4-7-13-15-17]
---------------------------------------------------------------------------------------------------------
Image
Image [18] (08)
Simply Red
Shine On
[21-14-11-12-12-14-14-18]
---------------------------------------------------------------------------------------------------------
Image
Image [19] (02)
Leona Lewis
I Am
[27-19]
---------------------------------------------------------------------------------------------------------
Image
Image [20] (06)
Nate Ruess
Nothing Without Love
[46-24-18-17-16-20]
---------------------------------------------------------------------------------------------------------
Image
Image [21] (01)
Of Monsters And Men
Empire

[21]
---------------------------------------------------------------------------------------------------------
Image
Image [22] (13)
Miguel
Coffee (F***ing) (featuring Wale)
[45-38-34-34-33-34-30-25-22-22-21-20-22]
---------------------------------------------------------------------------------------------------------
Image
Image [23] (08)
The Weeknd
The Hills
[33-28-27-27-26-23-23-23]
---------------------------------------------------------------------------------------------------------
Image
Image [24] (12)
Stereophonics
C'est La Vie
[3-1-2-3-5-5-7-11-9-18-24-24]
---------------------------------------------------------------------------------------------------------
Image
Image [25] (08)
Leona Lewis
Fire Under My Feet
[42-40-35-32-30-28-28-25]
---------------------------------------------------------------------------------------------------------
Image
Image [26] (16)
Mumford & Sons
The Wolf
[3-2-3-1-4-5-4-4-9-12-19-3-6-11-19-26]
---------------------------------------------------------------------------------------------------------
Image
Image [27] (03)
Mark Ronson
I Can't Lose (featuring Keyone Starr)
[36-30-27]
---------------------------------------------------------------------------------------------------------
Image
Image [28] (06)
Foals
What Went Down
[43-37-35-33-29-28]
---------------------------------------------------------------------------------------------------------
Image
Image [29] (17)
Florence + the Machine
Ship to Wreck
[2-1-1-1-3-5-4-6-1-2-3-4-8-13-20-26-29]
---------------------------------------------------------------------------------------------------------
Image
Image [30] (18)
Muse
Dead Inside
[21-18-12-12-8-9-11-6-5-8-1-1-3-5-10-12-21-30]
---------------------------------------------------------------------------------------------------------
Image
Image [31] (12)
Sia
California Dreamin'
[2-2-1-2-4-4-10-16-19-25-25-31]
---------------------------------------------------------------------------------------------------------
Image
Image [32] (09)
Kodaline
Ready
[30-27-20-22-21-25-29-32-32]
---------------------------------------------------------------------------------------------------------
Image
Image [33] (04)
Lunchmoney Lewis
Bills
[44-37-33-33]
---------------------------------------------------------------------------------------------------------
Image
Image [34] (01)
Disclosure
Omen (Featuring Sam Smith)

[34]
---------------------------------------------------------------------------------------------------------
Image
Image [35] (15)
James Bay
Let It Go
[8-5-4-7-8-10-9-8-8-15-20-24-30-31-35]
---------------------------------------------------------------------------------------------------------
Image
Image [36] (14)
Jessie J
Flashlight
[49-40-34-30-8-10-11-9-16-23-28-34-36-36]
---------------------------------------------------------------------------------------------------------
Image
Image [37] (12)
Editors
No Harm
[1-3-3-6-6-7-9-14-20-31-37-37]
---------------------------------------------------------------------------------------------------------
Image
Image [38] (02)
Hurts
Rolling Stone
[38-38]
---------------------------------------------------------------------------------------------------------
Image
Image [39] (17)
Jason Derülo
Want to Want Me
[49-19-13-15-12-10-9-7-5-7-10-13-19-21-27-34-39]
---------------------------------------------------------------------------------------------------------
Image
Image [40] (14)
Of Monsters and Men
I of the Storm
[2-2-6-7-9-12-14-15-21-25-27-32-35-40]
---------------------------------------------------------------------------------------------------------
Image
Image [41] (02)
Leona Lewis
Thunder
[44-41]
---------------------------------------------------------------------------------------------------------
Image
Image [42] (11)
Florence + the Machine
Delilah
[26-26-23-24-22-26-35-39-44-47-42]
---------------------------------------------------------------------------------------------------------
Image
Image [43] (11)
Adam Lambert
Underground
[28-14-13-13-16-24-31-33-41-40-43]
---------------------------------------------------------------------------------------------------------
Image
Image [44] (10)
A$AP Rocky
Everyday (Featuring Rod Stewart, Miguel & Mark Ronson)
[42-39-37-31-30-30-29-39-39-44]
---------------------------------------------------------------------------------------------------------
Image
Image [45] (01)
Ciara
Dance Like We're Making Love

[45]
---------------------------------------------------------------------------------------------------------
Image
Image [46] (20)
Of Monsters and Men
Crystals
[39-16-9-10-10-11-12-10-13-10-13-14-16-19-23-28-31-35-41-46]
---------------------------------------------------------------------------------------------------------
Image
Image [47] (20)
AWOLNATION
Hollow Moon (Bad Wolf)
[48-40-20-13-7-6-6-6-8-14-15-16-18-26-34-38-40-40-45-47]
---------------------------------------------------------------------------------------------------------
Image
Image [48] (18)
Echosmith
Bright
[46-42-20-14-11-11-14-16-17-20-23-25-32-36-41-45-50-48]
---------------------------------------------------------------------------------------------------------
Image
Image [49] (15)
Mumford & Sons
Snake Eyes
[26-18-15-19-21-27-18-17-21-28-26-32-38-42-49]
---------------------------------------------------------------------------------------------------------
Image
Image [50] (15)
Adam Lambert
Ghost Town
[50-45-43-40-38-38-36-41-41-38-34-38-47-49-50]
---------------------------------------------------------------------------------------------------------
OUT
---------------------------------------------------------------------------------------------------------
[43] (04)
Pharrell Williams
Freedom
[50-49-43-43]
---------------------------------------------------------------------------------------------------------
[46] (04)
Rihanna
Bitch Better Have My Money
[49 // 50-46-46]
---------------------------------------------------------------------------------------------------------
[48] (07)
Natalie La Rose
Somebody (Featuring Jeremih)
[46-42-40-39-37-42-48]
---------------------------------------------------------------------------------------------------------
User avatar
LittleArsonist
Personal Assistant
 
Posts: 933
Joined: Wed Jan 14, 2004

Postby LittleArsonist » Thu Aug 20, 2015 4:11 pm

cover
[TW] (WI)
artist
track title
[chartrun]
---------------------------------------------------------------------------------------------------------
50:NGS (32/52) - week ending August 9
---------------------------------------------------------------------------------------------------------

---------------------------------------------------------------------------------------------------------
Image
Image [01] (04)
U2
Song for Someone
[3-1-1-1]
---------------------------------------------------------------------------------------------------------
Image
Image [02] (08)
The Weeknd
Can't Feel My Face
[17-14-9-5-4-6-5-2]
---------------------------------------------------------------------------------------------------------
Image
Image [03] (11)
twenty one pilots
Stressed Out
[35-32-31-24-20-17-15-9-5-4-3]
---------------------------------------------------------------------------------------------------------
Image
Image [04] (06)
AWOLNATION
I Am
[46-8-5-3-2-4]
---------------------------------------------------------------------------------------------------------
Image
Image [05] (07)
Janet Jackson
No Sleeep
[5-1-1-1-2-3-5]
---------------------------------------------------------------------------------------------------------
Image
Image [06] (05)
X Ambassadors
Renegades
[23-10-7-6-6]
---------------------------------------------------------------------------------------------------------
Image
Image [07] (05)
The Fratellis
Baby, Don't You Lie To Me!
[34-24-12-11-7]
---------------------------------------------------------------------------------------------------------
Image
Image [08] (07)
Editors
Marching Orders
[18-18-17-16-9-8-8]
---------------------------------------------------------------------------------------------------------
Image
Image [09] (04)
The Vaccines
Dream Lover
[26-17-12-9]
---------------------------------------------------------------------------------------------------------
Image
Image [10] (05)
Rachel Platten
Fight Song
[7-2-2-4-7-10]
---------------------------------------------------------------------------------------------------------
Image
Image [11] (01)
Mumford & Sons
Ditmas

[11]
---------------------------------------------------------------------------------------------------------
Image
Image [12] (08)
Beck
Dreams
[27-17-13-11-8-8-9-12]
---------------------------------------------------------------------------------------------------------
Image
Image [13] (12)
Maroon 5
This Summer's Gonna Hurt Like A Motherf****r
[13-12-11-12-18-29-29-36-22-18-14-13]
---------------------------------------------------------------------------------------------------------
Image
Image [14] (03)
Leona Lewis
I Am
[27-19-14]
---------------------------------------------------------------------------------------------------------
Image
Image [15] (14)
Major Lazer
Lean On (featuring MØ & DJ Snake)
[47-37-35-28-26-20-11-8-6-4-6-10-10-15]
---------------------------------------------------------------------------------------------------------
Image
Image [16] (15)
Saint Raymond
Come Back to You
[41-32-28-24-23-21-19-13-12-15-14-15-13-16-16]
---------------------------------------------------------------------------------------------------------
Image
Image [17] (11)
Brandon Flowers
I Can Change
[11-7-3-2-2-4-7-13-15-17-17]
---------------------------------------------------------------------------------------------------------
Image
Image [18] (07)
Ross Copperman
Hunger
[1-2-3-7-11-13-18]
---------------------------------------------------------------------------------------------------------
Image
Image [19] (02)
Of Monsters And Men
Empire
[21-19]
---------------------------------------------------------------------------------------------------------
Image
Image [20] (01)
Foals
Mountain At My Gates

[20]
---------------------------------------------------------------------------------------------------------
Image
Image [21] (07)
Nate Ruess
Nothing Without Love
[46-24-18-17-16-20-21]
---------------------------------------------------------------------------------------------------------
Image
Image [22] (09)
Kelly Clarkson
Invincible
[10-6-6-10-16-19-22-15-22]
---------------------------------------------------------------------------------------------------------
Image
Image [23] (09)
Simply Red
Shine On
[21-14-11-12-12-14-14-18-23]
---------------------------------------------------------------------------------------------------------
Image
Image [24] (04)
Mark Ronson
I Can't Lose (featuring Keyone Starr)
[36-30-27-24]
---------------------------------------------------------------------------------------------------------
Image
Image [25] (07)
Foals
What Went Down
[43-37-35-33-29-28-25]
---------------------------------------------------------------------------------------------------------
Image
Image [26] (09)
The Weeknd
The Hills
[33-28-27-27-26-23-23-23-26]
---------------------------------------------------------------------------------------------------------
Image
Image [27] (14)
Miguel
Coffee (F***ing) (featuring Wale)
[45-38-34-34-33-34-30-25-22-22-21-20-22-27]
---------------------------------------------------------------------------------------------------------
Image
Image [28] (09)
Leona Lewis
Fire Under My Feet
[42-40-35-32-30-28-28-25-28]
---------------------------------------------------------------------------------------------------------
Image
Image [29] (13)
Stereophonics
C'est La Vie
[3-1-2-3-5-5-7-11-9-18-24-24-29]
---------------------------------------------------------------------------------------------------------
Image
Image [30] (10)
Kodaline
Ready
[30-27-20-22-21-25-29-32-32-30]
---------------------------------------------------------------------------------------------------------
Image
Image [31] (18)
Florence + the Machine
Ship to Wreck
[2-1-1-1-3-5-4-6-1-2-3-4-8-13-20-26-29-31]
---------------------------------------------------------------------------------------------------------
Image
Image [32] (02)
Disclosure
Omen (Featuring Sam Smith)
[34-32]
---------------------------------------------------------------------------------------------------------
Image
Image [33] (17)
Mumford & Sons
The Wolf
[3-2-3-1-4-5-4-4-9-12-19-3-6-11-19-26-33]
---------------------------------------------------------------------------------------------------------
Image
Image [34] (03)
Hurts
Rolling Stone
[38-38-34]
---------------------------------------------------------------------------------------------------------
Image
Image [35] (13)
Sia
California Dreamin'
[2-2-1-2-4-4-10-16-19-25-25-31-35]
---------------------------------------------------------------------------------------------------------
Image
Image [36] (03)
Leona Lewis
Thunder
[44-41-36]
---------------------------------------------------------------------------------------------------------
Image
Image [37] (19)
Muse
Dead Inside
[21-18-12-12-8-9-11-6-5-8-1-1-3-5-10-12-21-30-37]
---------------------------------------------------------------------------------------------------------
Image
Image [38] (15)
Jessie J
Flashlight
[49-40-34-30-8-10-11-9-16-23-28-34-36-36-38]
---------------------------------------------------------------------------------------------------------
Image
Image [39] (13)
Editors
No Harm
[1-3-3-6-6-7-9-14-20-31-37-37-39]
---------------------------------------------------------------------------------------------------------
Image
Image [40] (01)
Marina & The Diamonds
Blue

[40]
---------------------------------------------------------------------------------------------------------
Image
Image [41] (05)
Lunchmoney Lewis
Bills
[44-37-33-33-41]
---------------------------------------------------------------------------------------------------------
Image
Image [42] (16)
James Bay
Let It Go
[8-5-4-7-8-10-9-8-8-15-20-24-30-31-35-42]
---------------------------------------------------------------------------------------------------------
Image
Image [43] (18)
Jason Derülo
Want to Want Me
[49-19-13-15-12-10-9-7-5-7-10-13-19-21-27-34-39-43]
---------------------------------------------------------------------------------------------------------
Image
Image [44] (02)
Ciara
Dance Like We're Making Love
[45-44]
---------------------------------------------------------------------------------------------------------
Image
Image [45] (12)
Florence + the Machine
Delilah
[26-26-23-24-22-26-35-39-44-47-42-45]
---------------------------------------------------------------------------------------------------------
Image
Image [46] (01)
The Maccabees
Marks To Prove It

[46]
---------------------------------------------------------------------------------------------------------
Image
Image [47] (15)
Of Monsters and Men
I of the Storm
[2-2-6-7-9-12-14-15-21-25-27-32-35-40-47]
---------------------------------------------------------------------------------------------------------
Image
Image [48] (11)
A$AP Rocky
Everyday (Featuring Rod Stewart, Miguel & Mark Ronson)
[42-39-37-31-30-30-29-39-39-44-48]
---------------------------------------------------------------------------------------------------------
Image
Image [49] (01)
Major Lazer
Powerful (Featuring Ellie Goulding & Tarrus Riley)

[49]
---------------------------------------------------------------------------------------------------------
Image
Image [50] (12)
Adam Lambert
Underground
[28-14-13-13-16-24-31-33-41-40-43-50]
---------------------------------------------------------------------------------------------------------
OUT
---------------------------------------------------------------------------------------------------------
[46] (20)
Of Monsters and Men
Crystals
[39-16-9-10-10-11-12-10-13-10-13-14-16-19-23-28-31-35-41-46]
---------------------------------------------------------------------------------------------------------
[47] (20)
AWOLNATION
Hollow Moon (Bad Wolf)
[48-40-20-13-7-6-6-6-8-14-15-16-18-26-34-38-40-40-45-47]
---------------------------------------------------------------------------------------------------------
[48] (18)
Echosmith
Bright
[46-42-20-14-11-11-14-16-17-20-23-25-32-36-41-45-50-48]
---------------------------------------------------------------------------------------------------------
[49] (15)
Mumford & Sons
Snake Eyes
[26-18-15-19-21-27-18-17-21-28-26-32-38-42-49]
---------------------------------------------------------------------------------------------------------
[50] (15)
Adam Lambert
Ghost Town
[50-45-43-40-38-38-36-41-41-38-34-38-47-49-50]
---------------------------------------------------------------------------------------------------------
User avatar
LittleArsonist
Personal Assistant
 
Posts: 933
Joined: Wed Jan 14, 2004

Postby LittleArsonist » Thu Aug 20, 2015 4:56 pm

cover
[TW] (WI)
artist
track title
[chartrun]
---------------------------------------------------------------------------------------------------------
50:NGS (33/52) - week ending August 16
---------------------------------------------------------------------------------------------------------

---------------------------------------------------------------------------------------------------------
Image
Image [01] (09)
The Weeknd
Can't Feel My Face
[17-14-9-5-4-6-5-2-1]
---------------------------------------------------------------------------------------------------------
Image
Image [02] (05)
U2
Song for Someone
[3-1-1-1-2]
---------------------------------------------------------------------------------------------------------
Image
Image [03] (07)
AWOLNATION
I Am
[46-8-5-3-2-4-3]
---------------------------------------------------------------------------------------------------------
Image
Image [04] (08)
Janet Jackson
No Sleeep
[5-1-1-1-2-3-5-4]
---------------------------------------------------------------------------------------------------------
Image
Image [05] (08)
Editors
Marching Orders
[18-18-17-16-9-8-8-5]
---------------------------------------------------------------------------------------------------------
Image
Image [06] (12)
twenty one pilots
Stressed Out
[35-32-31-24-20-17-15-9-5-4-3-6]
---------------------------------------------------------------------------------------------------------
Image
Image [07] (05)
The Vaccines
Dream Lover
[26-17-12-9-7]
---------------------------------------------------------------------------------------------------------
Image
Image [08] (06)
X Ambassadors
Renegades
[23-10-7-6-6-8]
---------------------------------------------------------------------------------------------------------
Image
Image [09] (02)
Mumford & Sons
Ditmas
[11-9]
---------------------------------------------------------------------------------------------------------
Image
Image [10] (06)
The Fratellis
Baby, Don't You Lie To Me!
[34-24-12-11-7-10]
---------------------------------------------------------------------------------------------------------
Image
Image [11] (07)
Rachel Platten
Fight Song
[7-2-2-4-7-10-11]
---------------------------------------------------------------------------------------------------------
Image
Image [12] (04)
Leona Lewis
I Am
[27-19-14-12]
---------------------------------------------------------------------------------------------------------
Image
Image [13] (09)
Beck
Dreams
[27-17-13-11-8-8-9-12-13]
---------------------------------------------------------------------------------------------------------
Image
Image [14] (13)
Maroon 5
This Summer's Gonna Hurt Like A Motherf****r
[13-12-11-12-18-29-29-36-22-18-14-13-14]
---------------------------------------------------------------------------------------------------------
Image
Image [15] (03)
Of Monsters And Men
Empire
[21-19-15]
---------------------------------------------------------------------------------------------------------
Image
Image [16] (15)
Major Lazer
Lean On (featuring MØ & DJ Snake)
[47-37-35-28-26-20-11-8-6-4-6-10-10-15-16]
---------------------------------------------------------------------------------------------------------
Image
Image [17] (02)
Foals
Mountain At My Gates
[20-17]
---------------------------------------------------------------------------------------------------------
Image
Image [18] (16)
Saint Raymond
Come Back to You
[41-32-28-24-23-21-19-13-12-15-14-15-13-16-16-18]
---------------------------------------------------------------------------------------------------------
Image
Image [19] (08)
Nate Ruess
Nothing Without Love
[46-24-18-17-16-20-21-19]
---------------------------------------------------------------------------------------------------------
Image
Image [20] (12)
Brandon Flowers
I Can Change
[11-7-3-2-2-4-7-13-15-17-17-20]
---------------------------------------------------------------------------------------------------------
Image
Image [21] (05)
Mark Ronson
I Can't Lose (featuring Keyone Starr)
[36-30-27-24-21]
---------------------------------------------------------------------------------------------------------
Image
Image [22] (10)
Kelly Clarkson
Invincible
[10-6-6-10-16-19-22-15-22-22]
---------------------------------------------------------------------------------------------------------
Image
Image [23] (08)
Ross Copperman
Hunger
[1-2-3-7-11-13-18-23]
---------------------------------------------------------------------------------------------------------
Image
Image [24] (10)
Simply Red
Shine On
[21-14-11-12-12-14-14-18-23-24]
---------------------------------------------------------------------------------------------------------
Image
Image [25] (11)
Kodaline
Ready
[30-27-20-22-21-25-29-32-32-30-25]
---------------------------------------------------------------------------------------------------------
Image
Image [26] (01)
Jason Derülo
Cheyenne

[26]
---------------------------------------------------------------------------------------------------------
Image
Image [27] (10)
The Weeknd
The Hills
[33-28-27-27-26-23-23-23-26-27]
---------------------------------------------------------------------------------------------------------
Image
Image [28] (04)
Hurts
Rolling Stone
[38-38-34-28]
---------------------------------------------------------------------------------------------------------
Image
Image [29] (03)
Disclosure
Omen (Featuring Sam Smith)
[34-32-29]
---------------------------------------------------------------------------------------------------------
Image
Image [30] (08)
Foals
What Went Down
[43-37-35-33-29-28-25-30]
---------------------------------------------------------------------------------------------------------
Image
Image [31] (04)
Leona Lewis
Thunder
[44-41-36-31]
---------------------------------------------------------------------------------------------------------
Image
Image [32] (10)
Leona Lewis
Fire Under My Feet
[42-40-35-32-30-28-28-25-28-32]
---------------------------------------------------------------------------------------------------------
Image
Image [33] (14)
Stereophonics
C'est La Vie
[3-1-2-3-5-5-7-11-9-18-24-24-29-33]
---------------------------------------------------------------------------------------------------------
Image
Image [34] (01)
Mary Lambert
She Keeps Me Warm

[34]
---------------------------------------------------------------------------------------------------------
Image
Image [35] (15)
Miguel
Coffee (F***ing) (featuring Wale)
[45-38-34-34-33-34-30-25-22-22-21-20-22-27-35]
---------------------------------------------------------------------------------------------------------
Image
Image [36] (18)
Mumford & Sons
The Wolf
[3-2-3-1-4-5-4-4-9-12-19-3-6-11-19-26-33-36]
---------------------------------------------------------------------------------------------------------
Image
Image [37] (14)
Sia
California Dreamin'
[2-2-1-2-4-4-10-16-19-25-25-31-35-37]
---------------------------------------------------------------------------------------------------------
Image
Image [38] (19)
Florence + the Machine
Ship to Wreck
[2-1-1-1-3-5-4-6-1-2-3-4-8-13-20-26-29-31-38]
---------------------------------------------------------------------------------------------------------
Image
Image [39] (02)
Marina & The Diamonds
Blue
[40-39]
---------------------------------------------------------------------------------------------------------
Image
Image [40] (02)
The Maccabees
Marks To Prove It
[46-40]
---------------------------------------------------------------------------------------------------------
Image
Image [41] (16)
Jessie J
Flashlight
[49-40-34-30-8-10-11-9-16-23-28-34-36-36-38-41]
---------------------------------------------------------------------------------------------------------
Image
Image [42] (20)
Muse
Dead Inside
[21-18-12-12-8-9-11-6-5-8-1-1-3-5-10-12-21-30-37-42]
---------------------------------------------------------------------------------------------------------
Image
Image [43] (17)
James Bay
Let It Go
[8-5-4-7-8-10-9-8-8-15-20-24-30-31-35-42-43]
---------------------------------------------------------------------------------------------------------
Image
Image [44] (02)
Major Lazer
Powerful (Featuring Ellie Goulding & Tarrus Riley)
[49-44]
---------------------------------------------------------------------------------------------------------
Image
Image [45] (14)
Editors
No Harm
[1-3-3-6-6-7-9-14-20-31-37-37-39-45]
---------------------------------------------------------------------------------------------------------
Image
Image [46] (01)
Birdy & RHODES
Let It All Go

[46]
---------------------------------------------------------------------------------------------------------
Image
Image [47] (06)
Lunchmoney Lewis
Bills
[44-37-33-33-41-47]
---------------------------------------------------------------------------------------------------------
Image
Image [48] (19)
Jason Derülo
Want to Want Me
[49-19-13-15-12-10-9-7-5-7-10-13-19-21-27-34-39-43-48]
---------------------------------------------------------------------------------------------------------
Image
Image [49] (01)
Alicia Keys
28 Thousand Days

[49]
---------------------------------------------------------------------------------------------------------
Image
Image [50] (01)
Lana Del Rey
High By The Beach

[50]
---------------------------------------------------------------------------------------------------------
OUT
---------------------------------------------------------------------------------------------------------
[44] (02)
Ciara
Dance Like We're Making Love
[45-44]
---------------------------------------------------------------------------------------------------------
[45] (12)
Florence + the Machine
Delilah
[26-26-23-24-22-26-35-39-44-47-42-45]
---------------------------------------------------------------------------------------------------------
[47] (15)
Of Monsters and Men
I of the Storm
[2-2-6-7-9-12-14-15-21-25-27-32-35-40-47]
---------------------------------------------------------------------------------------------------------
[48] (11)
A$AP Rocky
Everyday (Featuring Rod Stewart, Miguel & Mark Ronson)
[42-39-37-31-30-30-29-39-39-44-48]
---------------------------------------------------------------------------------------------------------
[50] (12)
Adam Lambert
Underground
[28-14-13-13-16-24-31-33-41-40-43-50]
---------------------------------------------------------------------------------------------------------
Last edited by LittleArsonist on Fri Sep 04, 2015 6:39 pm, edited 1 time in total.
User avatar
LittleArsonist
Personal Assistant
 
Posts: 933
Joined: Wed Jan 14, 2004

Postby LittleArsonist » Thu Aug 20, 2015 6:12 pm

cover
[TW] (WI)
artist
track title
[chartrun]
---------------------------------------------------------------------------------------------------------
50:NGS (34/52) - week ending August 23
---------------------------------------------------------------------------------------------------------

---------------------------------------------------------------------------------------------------------
Image
Image [01] (10)
The Weeknd
Can't Feel My Face
[17-14-9-5-4-6-5-2-1-1]
---------------------------------------------------------------------------------------------------------
Image
Image [02] (09)
Editors
Marching Orders
[18-18-17-16-9-8-8-5-2]
---------------------------------------------------------------------------------------------------------
Image
Image [03] (08)
AWOLNATION
I Am
[46-8-5-3-2-4-3-3]
---------------------------------------------------------------------------------------------------------
Image
Image [04] (06)
U2
Song for Someone
[3-1-1-1-2-4]
---------------------------------------------------------------------------------------------------------
Image
Image [05] (06)
The Vaccines
Dream Lover
[26-17-12-9-7-5]
---------------------------------------------------------------------------------------------------------
Image
Image [06] (13)
twenty one pilots
Stressed Out
[35-32-31-24-20-17-15-9-5-4-3-6-6]
---------------------------------------------------------------------------------------------------------
Image
Image [07] (03)
Foals
Mountain At My Gates
[20-17-7]
---------------------------------------------------------------------------------------------------------
Image
Image [08] (07)
X Ambassadors
Renegades
[23-10-7-6-6-8-8]
---------------------------------------------------------------------------------------------------------
Image
Image [09] (09)
Janet Jackson
No Sleeep
[5-1-1-1-2-3-5-4-9]
---------------------------------------------------------------------------------------------------------
Image
Image [10] (03)
Mumford & Sons
Ditmas
[11-9-10]
---------------------------------------------------------------------------------------------------------
Image
Image [11] (08)
Rachel Platten
Fight Song
[7-2-2-4-7-10-11-11]
---------------------------------------------------------------------------------------------------------
Image
Image [12] (07)
The Fratellis
Baby, Don't You Lie To Me!
[34-24-12-11-7-10-12]
---------------------------------------------------------------------------------------------------------
Image
Image [13] (05)
Leona Lewis
I Am
[27-19-14-12-13]
---------------------------------------------------------------------------------------------------------
Image
Image [14] (04)
Of Monsters And Men
Empire
[21-19-15-14]
---------------------------------------------------------------------------------------------------------
Image
Image [15] (10)
Beck
Dreams
[27-17-13-11-8-8-9-12-13-15]
---------------------------------------------------------------------------------------------------------
Image
Image [16] (02)
Mary Lambert
She Keeps Me Warm
[34-16]
---------------------------------------------------------------------------------------------------------
Image
Image [17] (16)
Major Lazer
Lean On (featuring MØ & DJ Snake)
[47-37-35-28-26-20-11-8-6-4-6-10-10-15-16-17]
---------------------------------------------------------------------------------------------------------
Image
Image [18] (06)
Mark Ronson
I Can't Lose (featuring Keyone Starr)
[36-30-27-24-21-18]
---------------------------------------------------------------------------------------------------------
Image
Image [19] (02)
Jason Derülo
Cheyenne
[26-19]
---------------------------------------------------------------------------------------------------------
Image
Image [20] (11)
Simply Red
Shine On
[21-14-11-12-12-14-14-18-23-24-20]
---------------------------------------------------------------------------------------------------------
Image
Image [21] (09)
Nate Ruess
Nothing Without Love
[46-24-18-17-16-20-21-19-21]
---------------------------------------------------------------------------------------------------------
Image
Image [22] (14)
Maroon 5
This Summer's Gonna Hurt Like A Motherf****r
[13-12-11-12-18-29-29-36-22-18-14-13-14-22]
---------------------------------------------------------------------------------------------------------
Image
Image [23] (03)
The Maccabees
Marks To Prove It
[46-40-23]
---------------------------------------------------------------------------------------------------------
Image
Image [24] (13)
Brandon Flowers
I Can Change
[11-7-3-2-2-4-7-13-15-17-17-20-24]
---------------------------------------------------------------------------------------------------------
Image
Image [25] (09)
Foals
What Went Down
[43-37-35-33-29-28-25-30-25]
---------------------------------------------------------------------------------------------------------
Image
Image [26] (17)
Saint Raymond
Come Back to You
[41-32-28-24-23-21-19-13-12-15-14-15-13-16-16-18-26]
---------------------------------------------------------------------------------------------------------
Image
Image [27] (09)
Ross Copperman
Hunger
[1-2-3-7-11-13-18-23-27]
---------------------------------------------------------------------------------------------------------
Image
Image [28] (05)
Leona Lewis
Thunder
[44-41-36-31-28]
---------------------------------------------------------------------------------------------------------
Image
Image [29] (11)
Kelly Clarkson
Invincible
[10-6-6-10-16-19-22-15-22-22-29]
---------------------------------------------------------------------------------------------------------
Image
Image [30] (05)
Hurts
Rolling Stone
[38-38-34-28-30]
---------------------------------------------------------------------------------------------------------
Image
Image [31] (11)
The Weeknd
The Hills
[33-28-27-27-26-23-23-23-26-27-31]
---------------------------------------------------------------------------------------------------------
Image
Image [32] (02)
Birdy & RHODES
Let It All Go
[46-32]
---------------------------------------------------------------------------------------------------------
Image
Image [33] (12)
Kodaline
Ready
[30-27-20-22-21-25-29-32-32-30-25-33]
---------------------------------------------------------------------------------------------------------
Image
Image [34] (04)
Disclosure
Omen (Featuring Sam Smith)
[34-32-29-34]
---------------------------------------------------------------------------------------------------------
Image
Image [35] (02)
Lana Del Rey
High By The Beach
[50-35]
---------------------------------------------------------------------------------------------------------
Image
Image [36] (03)
Marina & The Diamonds
Blue
[40-39-36]
---------------------------------------------------------------------------------------------------------
Image
Image [37] (11)
Leona Lewis
Fire Under My Feet
[42-40-35-32-30-28-28-25-28-32-37]
---------------------------------------------------------------------------------------------------------
Image
Image [38] (03)
Major Lazer
Powerful (Featuring Ellie Goulding & Tarrus Riley)
[49-44-38]
---------------------------------------------------------------------------------------------------------
Image
Image [39] (16)
Miguel
Coffee (F***ing) (featuring Wale)
[45-38-34-34-33-34-30-25-22-22-21-20-22-27-35-39]
---------------------------------------------------------------------------------------------------------
Image
Image [40] (15)
Stereophonics
C'est La Vie
[3-1-2-3-5-5-7-11-9-18-24-24-29-33-40]
---------------------------------------------------------------------------------------------------------
Image
Image [41] (15)
Sia
California Dreamin'
[2-2-1-2-4-4-10-16-19-25-25-31-35-37-41]
---------------------------------------------------------------------------------------------------------
Image
Image [42] (01)
George Ezra
Barcelona

[42]
---------------------------------------------------------------------------------------------------------
Image
Image [43] (19)
Mumford & Sons
The Wolf
[3-2-3-1-4-5-4-4-9-12-19-3-6-11-19-26-33-36-43]
---------------------------------------------------------------------------------------------------------
Image
Image [44] (02)
Alicia Keys
28 Thousand Days
[49-44]
---------------------------------------------------------------------------------------------------------
Image
Image [45] (01)
Noel Gallagher's High Flying Birds
Lock All The Doors

[45]
---------------------------------------------------------------------------------------------------------
Image
Image [46] (18)
James Bay
Let It Go
[8-5-4-7-8-10-9-8-8-15-20-24-30-31-35-42-43-46]
---------------------------------------------------------------------------------------------------------
Image
Image [47] (17)
Jessie J
Flashlight
[49-40-34-30-8-10-11-9-16-23-28-34-36-36-38-41-47]
---------------------------------------------------------------------------------------------------------
Image
Image [48] (20)
Florence + the Machine
Ship to Wreck
[2-1-1-1-3-5-4-6-1-2-3-4-8-13-20-26-29-31-38-48]
---------------------------------------------------------------------------------------------------------
Image
Image [49] (20)
Jason Derülo
Want to Want Me
[49-19-13-15-12-10-9-7-5-7-10-13-19-21-27-34-39-43-48-49]
---------------------------------------------------------------------------------------------------------
Image
Image [50] (01)
Alessia Cara
Here

[50]
---------------------------------------------------------------------------------------------------------
OUT
---------------------------------------------------------------------------------------------------------
[42] (20)
Muse
Dead Inside
[21-18-12-12-8-9-11-6-5-8-1-1-3-5-10-12-21-30-37-42]
---------------------------------------------------------------------------------------------------------
[45] (14)
Editors
No Harm
[1-3-3-6-6-7-9-14-20-31-37-37-39-45]
---------------------------------------------------------------------------------------------------------
[47] (06)
Lunchmoney Lewis
Bills
[44-37-33-33-41-47]
---------------------------------------------------------------------------------------------------------
Last edited by LittleArsonist on Fri Sep 04, 2015 6:39 pm, edited 1 time in total.
User avatar
LittleArsonist
Personal Assistant
 
Posts: 933
Joined: Wed Jan 14, 2004

Postby Tansike » Wed Aug 26, 2015 8:48 am

Great current #1 with The Weeknd, can't wait for his album :D

Also good to see songs like "Powerful" by Major Lazer, Ciara's "Dance Like We're Making Love", Marina's "Blue", Lana's "High By The Beach" and Leona Lewis' two songs made it onto your charts over the last few updates :)

Is "Empire" the new single by Of Monsters And Men?
User avatar
Tansike
Legend
 
Posts: 43896
Joined: Sat Jan 28, 2012
Location: Switzerland

Postby LittleArsonist » Thu Aug 27, 2015 8:15 am

Tansike wrote:Great current #1 with The Weeknd, can't wait for his album :D
my holiday-week in London made me obsessed with that song and it had to reach #1 ahhaah

Also good to see songs like "Powerful" by Major Lazer, Ciara's "Dance Like We're Making Love", Marina's "Blue", Lana's "High By The Beach" and Leona Lewis' two songs made it onto your charts over the last few updates :)
I was late with a whole month of updates :lol:

Is "Empire" the new single by Of Monsters And Men?
yup, or at least a video was directed for the song just recently...it appears to be one of the digital promotional singles :)
User avatar
LittleArsonist
Personal Assistant
 
Posts: 933
Joined: Wed Jan 14, 2004

Postby LittleArsonist » Thu Aug 27, 2015 10:48 am

cover
[TW] (WI)
artist
track title
[chartrun]
---------------------------------------------------------------------------------------------------------
50:NGS (35/52) - week ending August 30
---------------------------------------------------------------------------------------------------------

---------------------------------------------------------------------------------------------------------
Image
Image [01] (09)
AWOLNATION
I Am
[46-8-5-3-2-4-3-3-1]
---------------------------------------------------------------------------------------------------------
Image
Image [02] (10)
Editors
Marching Orders
[18-18-17-16-9-8-8-5-2-2]
---------------------------------------------------------------------------------------------------------
Image
Image [03] (11)
The Weeknd
Can't Feel My Face
[17-14-9-5-4-6-5-2-1-1-3]
---------------------------------------------------------------------------------------------------------
Image
Image [04] (04)
Foals
Mountain At My Gates
[20-17-7-4]
---------------------------------------------------------------------------------------------------------
Image
Image [05] (07)
U2
Song for Someone
[3-1-1-1-2-4-5]
---------------------------------------------------------------------------------------------------------
Image
Image [06] (07)
The Vaccines
Dream Lover
[26-17-12-9-7-5-6]
---------------------------------------------------------------------------------------------------------
Image
Image [07] (09)
Rachel Platten
Fight Song
[7-2-2-4-7-10-11-11-7]
---------------------------------------------------------------------------------------------------------
Image
Image [08] (14)
twenty one pilots
Stressed Out
[35-32-31-24-20-17-15-9-5-4-3-6-6-8]
---------------------------------------------------------------------------------------------------------
Image
Image [09] (04)
Mumford & Sons
Ditmas
[11-9-10-9]
---------------------------------------------------------------------------------------------------------
Image
Image [10] (10)
Janet Jackson
No Sleeep
[5-1-1-1-2-3-5-4-9-10]
---------------------------------------------------------------------------------------------------------
Image
Image [11] (08)
X Ambassadors
Renegades
[23-10-7-6-6-8-8-11]
---------------------------------------------------------------------------------------------------------
Image
Image [12] (03)
Mary Lambert
She Keeps Me Warm
[34-16-12]
---------------------------------------------------------------------------------------------------------
Image
Image [13] (06)
Leona Lewis
I Am
[27-19-14-12-13-13]
---------------------------------------------------------------------------------------------------------
Image
Image [14] (07)
Mark Ronson
I Can't Lose (featuring Keyone Starr)
[36-30-27-24-21-18-14]
---------------------------------------------------------------------------------------------------------
Image
Image [15] (08)
The Fratellis
Baby, Don't You Lie To Me!
[34-24-12-11-7-10-12-15]
---------------------------------------------------------------------------------------------------------
Image
Image [16] (03)
Birdy & RHODES
Let It All Go
[46-32-16]
---------------------------------------------------------------------------------------------------------
Image
Image [17] (05)
Of Monsters And Men
Empire
[21-19-15-14-17]
---------------------------------------------------------------------------------------------------------
Image
Image [18] (11)
Beck
Dreams
[27-17-13-11-8-8-9-12-13-15-18]
---------------------------------------------------------------------------------------------------------
Image
Image [19] (04)
The Maccabees
Marks To Prove It
[46-40-23-19]
---------------------------------------------------------------------------------------------------------
Image
Image [20] (03)
Lana Del Rey
High By The Beach
[50-35-20]
---------------------------------------------------------------------------------------------------------
Image
Image [21] (03)
Jason Derülo
Cheyenne
[26-19-21]
---------------------------------------------------------------------------------------------------------
Image
Image [22] (12)
Simply Red
Shine On
[21-14-11-12-12-14-14-18-23-24-20-22]
---------------------------------------------------------------------------------------------------------
Image
Image [23] (10)
Foals
What Went Down
[43-37-35-33-29-28-25-30-25-23]
---------------------------------------------------------------------------------------------------------
Image
Image [24] (10)
Nate Ruess
Nothing Without Love
[46-24-18-17-16-20-21-19-21-24]
---------------------------------------------------------------------------------------------------------
Image
Image [25] (17)
Major Lazer
Lean On (featuring MØ & DJ Snake)
[47-37-35-28-26-20-11-8-6-4-6-10-10-15-16-17-25]
---------------------------------------------------------------------------------------------------------
Image
Image [26] (06)
Leona Lewis
Thunder
[44-41-36-31-28-26]
---------------------------------------------------------------------------------------------------------
Image
Image [27] (14)
Brandon Flowers
I Can Change
[11-7-3-2-2-4-7-13-15-17-17-20-24-27]
---------------------------------------------------------------------------------------------------------
Image
Image [28] (10)
Ross Copperman
Hunger
[1-2-3-7-11-13-18-23-27-28]
---------------------------------------------------------------------------------------------------------
Image
Image [29] (04)
Marina & The Diamonds
Blue
[40-39-36-29]
---------------------------------------------------------------------------------------------------------
Image
Image [30] (12)
The Weeknd
The Hills
[33-28-27-27-26-23-23-23-26-27-31-30]
---------------------------------------------------------------------------------------------------------
Image
Image [31] (15)
Maroon 5
This Summer's Gonna Hurt Like A Motherf****r
[13-12-11-12-18-29-29-36-22-18-14-13-14-22-31]
---------------------------------------------------------------------------------------------------------
Image
Image [32] (18)
Saint Raymond
Come Back to You
[41-32-28-24-23-21-19-13-12-15-14-15-13-16-16-18-26-32]
---------------------------------------------------------------------------------------------------------
Image
Image [33] (04)
Major Lazer
Powerful (Featuring Ellie Goulding & Tarrus Riley)
[49-44-38-33]
---------------------------------------------------------------------------------------------------------
Image
Image [34] (06)
Hurts
Rolling Stone
[38-38-34-28-30-34]
---------------------------------------------------------------------------------------------------------
Image
Image [35] (13)
Kodaline
Ready
[30-27-20-22-21-25-29-32-32-30-25-33-35]
---------------------------------------------------------------------------------------------------------
Image
Image [36] (12)
Kelly Clarkson
Invincible
[10-6-6-10-16-19-22-15-22-22-29-36]
---------------------------------------------------------------------------------------------------------
Image
Image [37] (02)
Noel Gallagher's High Flying Birds
Lock All The Doors
[45-37]
---------------------------------------------------------------------------------------------------------
Image
Image [38] (05)
Disclosure
Omen (Featuring Sam Smith)
[34-32-29-34-38]
---------------------------------------------------------------------------------------------------------
Image
Image [39] (02)
George Ezra
Barcelona
[42-39]
---------------------------------------------------------------------------------------------------------
Image
Image [40] (02)
Alessia Cara
Here
[50-40]
---------------------------------------------------------------------------------------------------------
Image
Image [41] (12)
Leona Lewis
Fire Under My Feet
[42-40-35-32-30-28-28-25-28-32-37-41]
---------------------------------------------------------------------------------------------------------
Image
Image [42] (03)
Alicia Keys
28 Thousand Days
[49-44-42]
---------------------------------------------------------------------------------------------------------
Image
Image [43] (16)
Stereophonics
C'est La Vie
[3-1-2-3-5-5-7-11-9-18-24-24-29-33-40-43]
---------------------------------------------------------------------------------------------------------
Image
Image [44] (01)
The Neighbourhood
R.I.P. 2 My Youth

[44]
---------------------------------------------------------------------------------------------------------
Image
Image [45] (16)
Sia
California Dreamin'
[2-2-1-2-4-4-10-16-19-25-25-31-35-37-41-45]
---------------------------------------------------------------------------------------------------------
Image
Image [46] (01)
Lana Del Rey
Terrence Loves You

[46]
---------------------------------------------------------------------------------------------------------
Image
Image [47] (17)
Miguel
Coffee (F***ing) (featuring Wale)
[45-38-34-34-33-34-30-25-22-22-21-20-22-27-35-39-47]
---------------------------------------------------------------------------------------------------------
Image
Image [48] (19)
James Bay
Let It Go
[8-5-4-7-8-10-9-8-8-15-20-24-30-31-35-42-43-46-48]
---------------------------------------------------------------------------------------------------------
Image
Image [49] (01)
The Common Linnets
We Don't Make The Wind Blow

[49]
---------------------------------------------------------------------------------------------------------
Image
Image [50] (20)
Mumford & Sons
The Wolf
[3-2-3-1-4-5-4-4-9-12-19-3-6-11-19-26-33-36-43-50]
---------------------------------------------------------------------------------------------------------
OUT
---------------------------------------------------------------------------------------------------------
[47] (17)
Jessie J
Flashlight
[49-40-34-30-8-10-11-9-16-23-28-34-36-36-38-41-47]
---------------------------------------------------------------------------------------------------------
[48] (20)
Florence + the Machine
Ship to Wreck
[2-1-1-1-3-5-4-6-1-2-3-4-8-13-20-26-29-31-38-48]
---------------------------------------------------------------------------------------------------------
[49] (20)
Jason Derülo
Want to Want Me
[49-19-13-15-12-10-9-7-5-7-10-13-19-21-27-34-39-43-48-49]
---------------------------------------------------------------------------------------------------------
Last edited by LittleArsonist on Thu Sep 17, 2015 6:44 pm, edited 2 times in total.
User avatar
LittleArsonist
Personal Assistant
 
Posts: 933
Joined: Wed Jan 14, 2004

Postby navi » Tue Sep 01, 2015 12:27 pm

Hope Foals - Mountain At My Gates will be next # 1 8-)
My year(s) in lists by Ivan (2008 - 2013)
User avatar
navi
Legend
 
Posts: 10003
Joined: Wed Aug 14, 2013
Location: Zagreb/Croatia

Postby Tansike » Wed Sep 02, 2015 3:38 pm

Great to see Lana Del Rey reaching the Top20 with "High By The Beach". Great lead single and i'm really excited for the album :D

Also love the climb for "Powerful" and the new entry for "Terrence Loves You" :)
User avatar
Tansike
Legend
 
Posts: 43896
Joined: Sat Jan 28, 2012
Location: Switzerland

Postby LittleArsonist » Fri Sep 04, 2015 6:36 pm

cover
[TW] (WI)
artist
track title
[chartrun]
---------------------------------------------------------------------------------------------------------
50:NGS (36/52) - week ending September 6
---------------------------------------------------------------------------------------------------------

---------------------------------------------------------------------------------------------------------
Image
Image [01] (05)
Foals
Mountain At My Gates
[20-17-7-4-1]
---------------------------------------------------------------------------------------------------------
Image
Image [02] (11)
Editors
Marching Orders
[18-18-17-16-9-8-8-5-2-2-2]
---------------------------------------------------------------------------------------------------------
Image
Image [03] (10)
AWOLNATION
I Am
[46-8-5-3-2-4-3-3-1-3]
---------------------------------------------------------------------------------------------------------
Image
Image [04] (08)
U2
Song for Someone
[3-1-1-1-2-4-5-4]
---------------------------------------------------------------------------------------------------------
Image
Image [05] (12)
The Weeknd
Can't Feel My Face
[17-14-9-5-4-6-5-2-1-1-3-5]
---------------------------------------------------------------------------------------------------------
Image
Image [06] (10)
Rachel Platten
Fight Song
[7-2-2-4-7-10-11-11-7-6]
---------------------------------------------------------------------------------------------------------
Image
Image [07] (08)
The Vaccines
Dream Lover
[26-17-12-9-7-5-6-7]
---------------------------------------------------------------------------------------------------------
Image
Image [08] (08)
Mark Ronson
I Can't Lose (featuring Keyone Starr)
[36-30-27-24-21-18-14-8]
---------------------------------------------------------------------------------------------------------
Image
Image [09] (04)
Mary Lambert
She Keeps Me Warm
[34-16-12-9]
---------------------------------------------------------------------------------------------------------
Image
Image [10] (05)
Mumford & Sons
Ditmas
[11-9-10-9-10]
---------------------------------------------------------------------------------------------------------
Image
Image [11] (15)
twenty one pilots
Stressed Out
[35-32-31-24-20-17-15-9-5-4-3-6-6-8-11]
---------------------------------------------------------------------------------------------------------
Image
Image [12] (04)
Birdy & RHODES
Let It All Go
[46-32-16-12]
---------------------------------------------------------------------------------------------------------
Image
Image [13] (11)
Janet Jackson
No Sleeep
[5-1-1-1-2-3-5-4-9-10-13]
---------------------------------------------------------------------------------------------------------
Image
Image [14] (09)
X Ambassadors
Renegades
[23-10-7-6-6-8-8-11-14]
---------------------------------------------------------------------------------------------------------
Image
Image [15] (05)
The Maccabees
Marks To Prove It
[46-40-23-19-15]
---------------------------------------------------------------------------------------------------------
Image
Image [16] (06)
Of Monsters And Men
Empire
[21-19-15-14-17-16]
---------------------------------------------------------------------------------------------------------
Image
Image [17] (11)
Foals
What Went Down
[43-37-35-33-29-28-25-30-25-23-17]
---------------------------------------------------------------------------------------------------------
Image
Image [18] (09)
The Fratellis
Baby, Don't You Lie To Me!
[34-24-12-11-7-10-12-15-18]
---------------------------------------------------------------------------------------------------------
Image
Image [19] (07)
Leona Lewis
I Am
[27-19-14-12-13-13-19]
---------------------------------------------------------------------------------------------------------
Image
Image [20] (04)
Lana Del Rey
High By The Beach
[50-35-20-20]
---------------------------------------------------------------------------------------------------------
Image
Image [21] (13)
The Weeknd
The Hills
[33-28-27-27-26-23-23-23-26-27-31-30-21]
---------------------------------------------------------------------------------------------------------
Image
Image [22] (12)
Beck
Dreams
[27-17-13-11-8-8-9-12-13-15-18-22]
---------------------------------------------------------------------------------------------------------
Image
Image [23] (04)
Jason Derülo
Cheyenne
[26-19-21-23]
---------------------------------------------------------------------------------------------------------
Image
Image [24] (03)
Alessia Cara
Here
[50-40-24]
---------------------------------------------------------------------------------------------------------
Image
Image [25] (07)
Leona Lewis
Thunder
[44-41-36-31-28-26-25]
---------------------------------------------------------------------------------------------------------
Image
Image [26] (05)
Major Lazer
Powerful (Featuring Ellie Goulding & Tarrus Riley)
[49-44-38-33-26]
---------------------------------------------------------------------------------------------------------
Image
Image [27] (11)
Nate Ruess
Nothing Without Love
[46-24-18-17-16-20-21-19-21-24-27]
---------------------------------------------------------------------------------------------------------
Image
Image [28] (05)
Marina & The Diamonds
Blue
[40-39-36-29-28]
---------------------------------------------------------------------------------------------------------
Image
Image [29] (01)
Florence + The Machine
Queen Of Peace

[29]
---------------------------------------------------------------------------------------------------------
Image
Image [30] (13)
Simply Red
Shine On
[21-14-11-12-12-14-14-18-23-24-20-22-30]
---------------------------------------------------------------------------------------------------------
Image
Image [31] (01)
Janet Jackson
Unbreakable

[31]
---------------------------------------------------------------------------------------------------------
Image
Image [32] (18)
Major Lazer
Lean On (featuring MØ & DJ Snake)
[47-37-35-28-26-20-11-8-6-4-6-10-10-15-16-17-25-32]
---------------------------------------------------------------------------------------------------------
Image
Image [33] (15)
Brandon Flowers
I Can Change
[11-7-3-2-2-4-7-13-15-17-17-20-24-27-33]
---------------------------------------------------------------------------------------------------------
Image
Image [34] (03)
Noel Gallagher's High Flying Birds
Lock All The Doors
[45-37-34]
---------------------------------------------------------------------------------------------------------
Image
Image [35] (11)
Ross Copperman
Hunger
[1-2-3-7-11-13-18-23-27-28-35]
---------------------------------------------------------------------------------------------------------
Image
Image [36] (16)
Maroon 5
This Summer's Gonna Hurt Like A Motherf****r
[13-12-11-12-18-29-29-36-22-18-14-13-14-22-31-36]
---------------------------------------------------------------------------------------------------------
Image
Image [37] (03)
George Ezra
Barcelona
[42-39-37]
---------------------------------------------------------------------------------------------------------
Image
Image [38] (14)
Kodaline
Ready
[30-27-20-22-21-25-29-32-32-30-25-33-35-38]
---------------------------------------------------------------------------------------------------------
Image
Image [39] (01)
Imagine Dragons
Roots

[39]
---------------------------------------------------------------------------------------------------------
Image
Image [40] (19)
Saint Raymond
Come Back to You
[41-32-28-24-23-21-19-13-12-15-14-15-13-16-16-18-26-32-40]
---------------------------------------------------------------------------------------------------------
Image
Image [41] (02)
The Common Linnets
We Don't Make The Wind Blow
[49-41]
---------------------------------------------------------------------------------------------------------
Image
Image [42] (02)
The Neighbourhood
R.I.P. 2 My Youth
[44-42]
---------------------------------------------------------------------------------------------------------
Image
Image [43] (07)
Hurts
Rolling Stone
[38-38-34-28-30-34-43]
---------------------------------------------------------------------------------------------------------
Image
Image [44] (13)
Kelly Clarkson
Invincible
[10-6-6-10-16-19-22-15-22-22-29-36-44]
---------------------------------------------------------------------------------------------------------
Image
Image [45] (06)
Disclosure
Omen (Featuring Sam Smith)
[34-32-29-34-38-45]
---------------------------------------------------------------------------------------------------------
Image
Image [46] (02)
Lana Del Rey
Terrence Loves You
[46-46]
---------------------------------------------------------------------------------------------------------
Image
Image [47] (04)
Alicia Keys
28 Thousand Days
[49-44-42-47]
---------------------------------------------------------------------------------------------------------
Image
Image [48] (13)
Leona Lewis
Fire Under My Feet
[42-40-35-32-30-28-28-25-28-32-37-41-48]
---------------------------------------------------------------------------------------------------------
Image
Image [49] (17)
Stereophonics
C'est La Vie
[3-1-2-3-5-5-7-11-9-18-24-24-29-33-40-43-49]
---------------------------------------------------------------------------------------------------------
Image
Image [50] (01)
Macklemore & Ryan Lewis
Downtown (Featuring Eric Nally, Melle Mel, Kool Moe Dee & Grandmaster Caz)

[50]
---------------------------------------------------------------------------------------------------------
OUT
---------------------------------------------------------------------------------------------------------
[45] (16)
Sia
California Dreamin'
[2-2-1-2-4-4-10-16-19-25-25-31-35-37-41-45]
---------------------------------------------------------------------------------------------------------
[47] (17)
Miguel
Coffee (F***ing) (featuring Wale)
[45-38-34-34-33-34-30-25-22-22-21-20-22-27-35-39-47]
---------------------------------------------------------------------------------------------------------
[48] (19)
James Bay
Let It Go
[8-5-4-7-8-10-9-8-8-15-20-24-30-31-35-42-43-46-48]
---------------------------------------------------------------------------------------------------------
[50] (20)
Mumford & Sons
The Wolf
[3-2-3-1-4-5-4-4-9-12-19-3-6-11-19-26-33-36-43-50]
---------------------------------------------------------------------------------------------------------
Last edited by LittleArsonist on Thu Sep 17, 2015 6:43 pm, edited 1 time in total.
User avatar
LittleArsonist
Personal Assistant
 
Posts: 933
Joined: Wed Jan 14, 2004

Postby LittleArsonist » Fri Sep 04, 2015 6:40 pm

navi wrote:Hope Foals - Mountain At My Gates will be next # 1 8-)
and that was it :D 8-)
User avatar
LittleArsonist
Personal Assistant
 
Posts: 933
Joined: Wed Jan 14, 2004

Postby LittleArsonist » Fri Sep 04, 2015 6:41 pm

Tansike wrote:Great to see Lana Del Rey reaching the Top20 with "High By The Beach". Great lead single and i'm really excited for the album :D

Also love the climb for "Powerful" and the new entry for "Terrence Loves You" :)
TLY doesn't convince me much yet...HBTB is a much stronger track imo. Of course I can't wait for Honeymoon to be out too! :)

Major Lazer album in my likes...is the most unexpected fact so far this year :o :lol:
User avatar
LittleArsonist
Personal Assistant
 
Posts: 933
Joined: Wed Jan 14, 2004

Return to Personal Charts