50:иgѕ w/e May 20 - snow patroling

Moderators: JSparksFan, tdc2000, FreakyFlyBry

 

Postby Tansike » Wed Sep 09, 2015 8:10 am

Good entry for Imagine Dragons' new single. Macklemore & Ryan Lewis' new song still needs to grow on me, but i'm pretty excited for their second album :) Also loving the chartrun for The Weeknd's "The Hills" 8-)

LittleArsonist wrote:TLY doesn't convince me much yet...HBTB is a much stronger track imo. Of course I can't wait for Honeymoon to be out too! :)

Major Lazer album in my likes...is the most unexpected fact so far this year :o :lol:
I agree as i like HBTB more than TLY as well, but i think it's a beautiful ballad. The title track is easily the weakest song we got so far.
Haha i thought so too. I never ever expected to like an album like this :lol: :oops:
User avatar
Tansike
Legend
 
Posts: 42263
Joined: Sat Jan 28, 2012
Location: Switzerland

Postby navi » Thu Sep 10, 2015 12:12 pm

[12] (04) Birdy & RHODES - Let It All Go
a year ago i was trying to persuade you,
but you were stubborn, now (finally) you're hooked on RHODES :wink:
My year(s) in lists by Ivan (2008 - 2013)
User avatar
navi
Superstar
 
Posts: 9456
Joined: Wed Aug 14, 2013
Location: Zagreb/Croatia

Postby LittleArsonist » Thu Sep 10, 2015 6:37 pm

cover
[TW] (WI)
artist
track title
[chartrun]
---------------------------------------------------------------------------------------------------------
50:NGS (37/52) - week ending September 13
---------------------------------------------------------------------------------------------------------

---------------------------------------------------------------------------------------------------------
Image
Image [01] (06)
Foals
Mountain At My Gates
[20-17-7-4-1-1]
---------------------------------------------------------------------------------------------------------
Image
Image [02] (11)
Rachel Platten
Fight Song
[7-2-2-4-7-10-11-11-7-6-2]
---------------------------------------------------------------------------------------------------------
Image
Image [03] (09)
The Vaccines
Dream Lover
[26-17-12-9-7-5-6-7-3]
---------------------------------------------------------------------------------------------------------
Image
Image [04] (12)
Editors
Marching Orders
[18-18-17-16-9-8-8-5-2-2-2-4]
---------------------------------------------------------------------------------------------------------
Image
Image [05] (11)
AWOLNATION
I Am
[46-8-5-3-2-4-3-3-1-3-5]
---------------------------------------------------------------------------------------------------------
Image
Image [06] (09)
U2
Song for Someone
[3-1-1-1-2-4-5-4-6]
---------------------------------------------------------------------------------------------------------
Image
Image [07] (05)
Birdy & RHODES
Let It All Go
[46-32-16-12-7]
---------------------------------------------------------------------------------------------------------
Image
Image [08] (13)
The Weeknd
Can't Feel My Face
[17-14-9-5-4-6-5-2-1-1-3-5-8]
---------------------------------------------------------------------------------------------------------
Image
Image [09] (09)
Mark Ronson
I Can't Lose (featuring Keyone Starr)
[36-30-27-24-21-18-14-8-9]
---------------------------------------------------------------------------------------------------------
Image
Image [10] (04)
Alessia Cara
Here
[50-40-24-10]
---------------------------------------------------------------------------------------------------------
Image
Image [11] (05)
Mary Lambert
She Keeps Me Warm
[34-16-12-9-11]
---------------------------------------------------------------------------------------------------------
Image
Image [12] (06)
The Maccabees
Marks To Prove It
[46-40-23-19-15-12]
---------------------------------------------------------------------------------------------------------
Image
Image [13] (01)
Kodaline
Love Will Set You Free

[13]
---------------------------------------------------------------------------------------------------------
Image
Image [14] (12)
Janet Jackson
No Sleeep
[5-1-1-1-2-3-5-4-9-10-13-14]
---------------------------------------------------------------------------------------------------------
Image
Image [15] (12)
Foals
What Went Down
[43-37-35-33-29-28-25-30-25-23-17-15]
---------------------------------------------------------------------------------------------------------
Image
Image [16] (06)
Mumford & Sons
Ditmas
[11-9-10-9-10-16]
---------------------------------------------------------------------------------------------------------
Image
Image [17] (16)
twenty one pilots
Stressed Out
[35-32-31-24-20-17-15-9-5-4-3-6-6-8-11-17]
---------------------------------------------------------------------------------------------------------
Image
Image [18] (10)
X Ambassadors
Renegades
[23-10-7-6-6-8-8-11-14-18]
---------------------------------------------------------------------------------------------------------
Image
Image [19] (02)
Florence + The Machine
Queen Of Peace
[29-19]
---------------------------------------------------------------------------------------------------------
Image
Image [20] (14)
The Weeknd
The Hills
[33-28-27-27-26-23-23-23-26-27-31-30-21-20]
---------------------------------------------------------------------------------------------------------
Image
Image [21] (07)
Of Monsters And Men
Empire
[21-19-15-14-17-16-21]
---------------------------------------------------------------------------------------------------------
Image
Image [22] (08)
Leona Lewis
I Am
[27-19-14-12-13-13-19-22]
---------------------------------------------------------------------------------------------------------
Image
Image [23] (05)
Lana Del Rey
High By The Beach
[50-35-20-20-23]
---------------------------------------------------------------------------------------------------------
Image
Image [24] (05)
Jason Derülo
Cheyenne
[26-19-21-23-24]
---------------------------------------------------------------------------------------------------------
Image
Image [25] (06)
Major Lazer
Powerful (Featuring Ellie Goulding & Tarrus Riley)
[49-44-38-33-26-25]
---------------------------------------------------------------------------------------------------------
Image
Image [26] (10)
The Fratellis
Baby, Don't You Lie To Me!
[34-24-12-11-7-10-12-15-18-26]
---------------------------------------------------------------------------------------------------------
Image
Image [27] (13)
Beck
Dreams
[27-17-13-11-8-8-9-12-13-15-18-22-27]
---------------------------------------------------------------------------------------------------------
Image
Image [28] (06)
Marina & The Diamonds
Blue
[40-39-36-29-28-28]
---------------------------------------------------------------------------------------------------------
Image
Image [29] (12)
Nate Ruess
Nothing Without Love
[46-24-18-17-16-20-21-19-21-24-27-29]
---------------------------------------------------------------------------------------------------------
Image
Image [30] (02)
Janet Jackson
Unbreakable
[31-30]
---------------------------------------------------------------------------------------------------------
Image
Image [31] (04)
Noel Gallagher's High Flying Birds
Lock All The Doors
[45-37-34-31]
---------------------------------------------------------------------------------------------------------
Image
Image [32] (14)
Simply Red
Shine On
[21-14-11-12-12-14-14-18-23-24-20-22-30-32]
---------------------------------------------------------------------------------------------------------
Image
Image [33] (02)
Macklemore & Ryan Lewis
Downtown (Featuring Eric Nally, Melle Mel, Kool Moe Dee & Grandmaster Caz)
[50-33]
---------------------------------------------------------------------------------------------------------
Image
Image [34] (04)
George Ezra
Barcelona
[42-39-37-34]
---------------------------------------------------------------------------------------------------------
Image
Image [35] (02)
Imagine Dragons
Roots
[39-35]
---------------------------------------------------------------------------------------------------------
Image
Image [36] (08)
Leona Lewis
Thunder
[44-41-36-31-28-26-25-36]
---------------------------------------------------------------------------------------------------------
Image
Image [37] (16)
Brandon Flowers
I Can Change
[11-7-3-2-2-4-7-13-15-17-17-20-24-27-33-37]
---------------------------------------------------------------------------------------------------------
Image
Image [38] (01)
Halsey
New Americana

[38]
---------------------------------------------------------------------------------------------------------
Image
Image [39] (03)
The Common Linnets
We Don't Make The Wind Blow
[49-41-39]
---------------------------------------------------------------------------------------------------------
Image
Image [40] (03)
The Neighbourhood
R.I.P. 2 My Youth
[44-42-40]
---------------------------------------------------------------------------------------------------------
Image
Image [41] (12)
Ross Copperman
Hunger
[1-2-3-7-11-13-18-23-27-28-35-41]
---------------------------------------------------------------------------------------------------------
Image
Image [42] (19)
Major Lazer
Lean On (featuring MØ & DJ Snake)
[47-37-35-28-26-20-11-8-6-4-6-10-10-15-16-17-25-32-42]
---------------------------------------------------------------------------------------------------------
Image
Image [43] (01)
Matt Nathanson
Show Me Your Fangs

[43]
---------------------------------------------------------------------------------------------------------
Image
Image [44] (02)
Lana Del Rey
Terrence Loves You
[46-46-44]
---------------------------------------------------------------------------------------------------------
Image
Image [45] (15)
Kodaline
Ready
[30-27-20-22-21-25-29-32-32-30-25-33-35-38-45]
---------------------------------------------------------------------------------------------------------
Image
Image [46] (01)
The View
Marriage

[46]
---------------------------------------------------------------------------------------------------------
Image
Image [47] (17)
Maroon 5
This Summer's Gonna Hurt Like A Motherf****r
[13-12-11-12-18-29-29-36-22-18-14-13-14-22-31-36-47]
---------------------------------------------------------------------------------------------------------
Image
Image [48] (20)
Saint Raymond
Come Back to You
[41-32-28-24-23-21-19-13-12-15-14-15-13-16-16-18-26-32-40-48]
---------------------------------------------------------------------------------------------------------
Image
Image [49] (01)
Lana Del Rey
Honeymoon

[49]
---------------------------------------------------------------------------------------------------------
Image
Image [50] (08)
Hurts
Rolling Stone
[38-38-34-28-30-34-43-50]
---------------------------------------------------------------------------------------------------------
OUT
---------------------------------------------------------------------------------------------------------
[44] (13)
Kelly Clarkson
Invincible
[10-6-6-10-16-19-22-15-22-22-29-36-44]
---------------------------------------------------------------------------------------------------------
[45] (06)
Disclosure
Omen (Featuring Sam Smith)
[34-32-29-34-38-45]
---------------------------------------------------------------------------------------------------------
[47] (04)
Alicia Keys
28 Thousand Days
[49-44-42-47]
---------------------------------------------------------------------------------------------------------
[48] (13)
Leona Lewis
Fire Under My Feet
[42-40-35-32-30-28-28-25-28-32-37-41-48]
---------------------------------------------------------------------------------------------------------
[49] (17)
Stereophonics
C'est La Vie
[3-1-2-3-5-5-7-11-9-18-24-24-29-33-40-43-49]
---------------------------------------------------------------------------------------------------------
Last edited by LittleArsonist on Thu Sep 17, 2015 6:43 pm, edited 1 time in total.
User avatar
LittleArsonist
Personal Assistant
 
Posts: 904
Joined: Wed Jan 14, 2004

Postby LittleArsonist » Thu Sep 10, 2015 6:44 pm

navi wrote:
[12] (04) Birdy & RHODES - Let It All Go
a year ago i was trying to persuade you,
but you were stubborn, now (finally) you're hooked on RHODES :wink:
ahahhahahaha true true true...but I liked what you suggested back then :P
User avatar
LittleArsonist
Personal Assistant
 
Posts: 904
Joined: Wed Jan 14, 2004

Postby LittleArsonist » Thu Sep 10, 2015 6:48 pm

Tansike wrote:Good entry for Imagine Dragons' new single. Macklemore & Ryan Lewis' new song still needs to grow on me, but i'm pretty excited for their second album :) Also loving the chartrun for The Weeknd's "The Hills" 8-)
and you might be surprised by Often charting very soon (at last!) ahahhaha
I liked Macklemore & Ryan track at first listening...video is woah and they definitely know how to do it! great comeback imo

The title track is easily the weakest song we got so far.
Honeymoon...so true. It's a weak track. I'd be surprised for it to stay for a second week :roll:
let's wait for the 4th digital pre-single tomorrow and let's see if it'll be the best one or it'll beat title track for the weakest one :lol:
User avatar
LittleArsonist
Personal Assistant
 
Posts: 904
Joined: Wed Jan 14, 2004

Postby Tansike » Wed Sep 16, 2015 6:37 am

^ Haha but that would be something good, as i like the song 8-) To be honest i didn't know about that song until a few weeks ago as well and it just made its debut on the UK charts too so why not? :)
Have to check out the video as i didn't see it yet...

Well, at least it made an entry. I only listened to it once so far (when it came out) and it was too boring for me to listen to it again. But i'll listen to it a few times for sure when the album comes out this friday, so there's a chance it may grow on me :)
...and IMO the 4th track is better than the title track now :)

Great to see "The Hills" in the Top20 now, and good entries for Halsey & Lana Del Rey :)
User avatar
Tansike
Legend
 
Posts: 42263
Joined: Sat Jan 28, 2012
Location: Switzerland

Postby LittleArsonist » Thu Sep 17, 2015 6:38 pm

cover
[TW] (WI)
artist
track title
[chartrun]
---------------------------------------------------------------------------------------------------------
50:NGS (38/52) - week ending September 20
---------------------------------------------------------------------------------------------------------

---------------------------------------------------------------------------------------------------------
Image
Image [01] (07)
Foals
Mountain At My Gates
[20-17-7-4-1-1-1]
---------------------------------------------------------------------------------------------------------
Image
Image [02] (01)
Paloma Faith
The Crazy Ones

[2]
---------------------------------------------------------------------------------------------------------
Image
Image [03] (10)
The Vaccines
Dream Lover
[26-17-12-9-7-5-6-7-3-3]
---------------------------------------------------------------------------------------------------------
Image
Image [04] (12)
Rachel Platten
Fight Song
[7-2-2-4-7-10-11-11-7-6-2-4]
---------------------------------------------------------------------------------------------------------
Image
Image [05] (06)
Birdy & RHODES
Let It All Go
[46-32-16-12-7-5]
---------------------------------------------------------------------------------------------------------
Image
Image [06] (13)
Editors
Marching Orders
[18-18-17-16-9-8-8-5-2-2-2-4-6]
---------------------------------------------------------------------------------------------------------
Image
Image [07] (05)
Alessia Cara
Here
[50-40-24-10-7]
---------------------------------------------------------------------------------------------------------
Image
Image [08] (12)
AWOLNATION
I Am
[46-8-5-3-2-4-3-3-1-3-5-8]
---------------------------------------------------------------------------------------------------------
Image
Image [09] (10)
U2
Song for Someone
[3-1-1-1-2-4-5-4-6-9]
---------------------------------------------------------------------------------------------------------
Image
Image [10] (07)
The Maccabees
Marks To Prove It
[46-40-23-19-15-12-10]
---------------------------------------------------------------------------------------------------------
Image
Image [11] (10)
Mark Ronson
I Can't Lose (featuring Keyone Starr)
[36-30-27-24-21-18-14-8-9-11]
---------------------------------------------------------------------------------------------------------
Image
Image [12] (03)
Florence + The Machine
Queen Of Peace
[29-19-12]
---------------------------------------------------------------------------------------------------------
Image
Image [13] (14)
The Weeknd
Can't Feel My Face
[17-14-9-5-4-6-5-2-1-1-3-5-8-13]
---------------------------------------------------------------------------------------------------------
Image
Image [14] (07)
Mumford & Sons
Ditmas
[11-9-10-9-10-16-14]
---------------------------------------------------------------------------------------------------------
Image
Image [15] (02)
Kodaline
Love Will Set You Free
[13-15]
---------------------------------------------------------------------------------------------------------
Image
Image [16] (13)
Foals
What Went Down
[43-37-35-33-29-28-25-30-25-23-17-15-16]
---------------------------------------------------------------------------------------------------------
Image
Image [17] (01)
James Morrison
Demons

[17]
---------------------------------------------------------------------------------------------------------
Image
Image [18] (06)
Mary Lambert
She Keeps Me Warm
[34-16-12-9-11-18]
---------------------------------------------------------------------------------------------------------
Image
Image [19] (13)
Janet Jackson
No Sleeep
[5-1-1-1-2-3-5-4-9-10-13-14-19]
---------------------------------------------------------------------------------------------------------
Image
Image [20] (03)
Macklemore & Ryan Lewis
Downtown (Featuring Eric Nally, Melle Mel, Kool Moe Dee & Grandmaster Caz)
[50-33-20]
---------------------------------------------------------------------------------------------------------
Image
Image [21] (15)
The Weeknd
The Hills
[33-28-27-27-26-23-23-23-26-27-31-30-21-20-21]
---------------------------------------------------------------------------------------------------------
Image
Image [22] (11)
X Ambassadors
Renegades
[23-10-7-6-6-8-8-11-14-18-22]
---------------------------------------------------------------------------------------------------------
Image
Image [23] (07)
Major Lazer
Powerful (Featuring Ellie Goulding & Tarrus Riley)
[49-44-38-33-26-25-23]
---------------------------------------------------------------------------------------------------------
Image
Image [24] (06)
Lana Del Rey
High By The Beach
[50-35-20-20-23-24]
---------------------------------------------------------------------------------------------------------
Image
Image [25] (09)
Leona Lewis
I Am
[27-19-14-12-13-13-19-22-25]
---------------------------------------------------------------------------------------------------------
Image
Image [26] (07)
Marina & The Diamonds
Blue
[40-39-36-29-28-28-26]
---------------------------------------------------------------------------------------------------------
Image
Image [27] (17)
twenty one pilots
Stressed Out
[35-32-31-24-20-17-15-9-5-4-3-6-6-8-11-17-27]
---------------------------------------------------------------------------------------------------------
Image
Image [28] (03)
Janet Jackson
Unbreakable
[31-30-28]
---------------------------------------------------------------------------------------------------------
Image
Image [29] (08)
Of Monsters And Men
Empire
[21-19-15-14-17-16-21-29]
---------------------------------------------------------------------------------------------------------
Image
Image [30] (05)
Noel Gallagher's High Flying Birds
Lock All The Doors
[45-37-34-31-30]
---------------------------------------------------------------------------------------------------------
Image
Image [31] (11)
The Fratellis
Baby, Don't You Lie To Me!
[34-24-12-11-7-10-12-15-18-26-31]
---------------------------------------------------------------------------------------------------------
Image
Image [32] (03)
Imagine Dragons
Roots
[39-35-32]
---------------------------------------------------------------------------------------------------------
Image
Image [33] (14)
Beck
Dreams
[27-17-13-11-8-8-9-12-13-15-18-22-27-33]
---------------------------------------------------------------------------------------------------------
Image
Image [34] (02)
Halsey
New Americana
[38-34]
---------------------------------------------------------------------------------------------------------
Image
Image [35] (06)
Jason Derülo
Cheyenne
[26-19-21-23-24-35]
---------------------------------------------------------------------------------------------------------
Image
Image [36] (13)
Nate Ruess
Nothing Without Love
[46-24-18-17-16-20-21-19-21-24-27-29-36]
---------------------------------------------------------------------------------------------------------
Image
Image [37] (04)
The Common Linnets
We Don't Make The Wind Blow
[49-41-39-37]
---------------------------------------------------------------------------------------------------------
Image
Image [38] (05)
George Ezra
Barcelona
[42-39-37-34-38]
---------------------------------------------------------------------------------------------------------
Image
Image [39] (03)
Lana Del Rey
Terrence Loves You
[46-46-44-39]
---------------------------------------------------------------------------------------------------------
Image
Image [40] (04)
The Neighbourhood
R.I.P. 2 My Youth
[44-42-40-40]
---------------------------------------------------------------------------------------------------------
Image
Image [41] (17)
Brandon Flowers
I Can Change
[11-7-3-2-2-4-7-13-15-17-17-20-24-27-33-37-41]
---------------------------------------------------------------------------------------------------------
Image
Image [42] (02)
Matt Nathanson
Show Me Your Fangs
[43-42]
---------------------------------------------------------------------------------------------------------
Image
Image [43] (02)
The View
Marriage
[46-43]
---------------------------------------------------------------------------------------------------------
Image
Image [44] (15)
Simply Red
Shine On
[21-14-11-12-12-14-14-18-23-24-20-22-30-32-44]
---------------------------------------------------------------------------------------------------------
Image
Image [45] (09)
Leona Lewis
Thunder
[44-41-36-31-28-26-25-36-45]
---------------------------------------------------------------------------------------------------------
Image
Image [46] (01)
Lana Del Rey
Music To Watch Boys By

[46]
---------------------------------------------------------------------------------------------------------
Image
Image [47] (16)
Kodaline
Ready
[30-27-20-22-21-25-29-32-32-30-25-33-35-38-45-47]
---------------------------------------------------------------------------------------------------------
Image
Image [48] (13)
Ross Copperman
Hunger
[1-2-3-7-11-13-18-23-27-28-35-41-48]
---------------------------------------------------------------------------------------------------------
Image
Image [49] (01)
Jewel
My Father's Daughter (Featuring Dolly Parton)

[49]
---------------------------------------------------------------------------------------------------------
Image
Image [50] (01)
Ellie Goulding
On My Mind

[50]
---------------------------------------------------------------------------------------------------------
OUT
---------------------------------------------------------------------------------------------------------
[42] (19)
Major Lazer
Lean On (featuring MØ & DJ Snake)
[47-37-35-28-26-20-11-8-6-4-6-10-10-15-16-17-25-32-42]
---------------------------------------------------------------------------------------------------------
[47] (17)
Maroon 5
This Summer's Gonna Hurt Like A Motherf****r
[13-12-11-12-18-29-29-36-22-18-14-13-14-22-31-36-47]
---------------------------------------------------------------------------------------------------------
[48] (20)
Saint Raymond
Come Back to You
[41-32-28-24-23-21-19-13-12-15-14-15-13-16-16-18-26-32-40-48]
---------------------------------------------------------------------------------------------------------
[49] (01)
Lana Del Rey
Honeymoon
[49]
---------------------------------------------------------------------------------------------------------
[50] (08)
Hurts
Rolling Stone
[38-38-34-28-30-34-43-50]
---------------------------------------------------------------------------------------------------------
User avatar
LittleArsonist
Personal Assistant
 
Posts: 904
Joined: Wed Jan 14, 2004

Postby Tansike » Thu Sep 24, 2015 10:25 am

Love "Music To Watch Boys To", glad to see its entry. I also like the new debuts by James Morrison and Ellie Goulding this week :)
User avatar
Tansike
Legend
 
Posts: 42263
Joined: Sat Jan 28, 2012
Location: Switzerland

Postby LittleArsonist » Thu Sep 24, 2015 6:45 pm

cover
[TW] (WI)
artist
track title
[chartrun]
---------------------------------------------------------------------------------------------------------
50:NGS (39/52) - week ending September 27
---------------------------------------------------------------------------------------------------------

---------------------------------------------------------------------------------------------------------
Image
Image [01] (01)
Sia
Alive

[1]
---------------------------------------------------------------------------------------------------------
Image
Image [02] (02)
Paloma Faith
The Crazy Ones
[2-2]
---------------------------------------------------------------------------------------------------------
Image
Image [03] (08)
Foals
Mountain At My Gates
[20-17-7-4-1-1-1-3]
---------------------------------------------------------------------------------------------------------
Image
Image [04] (01)
Sara Bareilles
She Used To Be Mine

[4]
---------------------------------------------------------------------------------------------------------
Image
Image [05] (13)
Rachel Platten
Fight Song
[7-2-2-4-7-10-11-11-7-6-2-4-5]
---------------------------------------------------------------------------------------------------------
Image
Image [06] (11)
The Vaccines
Dream Lover
[26-17-12-9-7-5-6-7-3-3-6]
---------------------------------------------------------------------------------------------------------
Image
Image [07] (07)
Birdy & RHODES
Let It All Go
[46-32-16-12-7-5-7]
---------------------------------------------------------------------------------------------------------
Image
Image [08] (06)
Alessia Cara
Here
[50-40-24-10-7-8]
---------------------------------------------------------------------------------------------------------
Image
Image [09] (02)
James Morrison
Demons
[17-9]
---------------------------------------------------------------------------------------------------------
Image
Image [10] (04)
Florence + The Machine
Queen Of Peace
[29-19-12-10]
---------------------------------------------------------------------------------------------------------
Image
Image [11] (11)
U2
Song for Someone
[3-1-1-1-2-4-5-4-6-9-11]
---------------------------------------------------------------------------------------------------------
Image
Image [12] (03)
Kodaline
Love Will Set You Free
[13-15-12]
---------------------------------------------------------------------------------------------------------
Image
Image [13] (08)
The Maccabees
Marks To Prove It
[46-40-23-19-15-12-10-13]
---------------------------------------------------------------------------------------------------------
Image
Image [14] (13)
AWOLNATION
I Am
[46-8-5-3-2-4-3-3-1-3-5-8-14]
---------------------------------------------------------------------------------------------------------
Image
Image [15] (08)
Mumford & Sons
Ditmas
[11-9-10-9-10-16-14-15]
---------------------------------------------------------------------------------------------------------
Image
Image [16] (14)
Editors
Marching Orders
[18-18-17-16-9-8-8-5-2-2-2-4-6-16]
---------------------------------------------------------------------------------------------------------
Image
Image [17] (15)
The Weeknd
Can't Feel My Face
[17-14-9-5-4-6-5-2-1-1-3-5-8-13-17]
---------------------------------------------------------------------------------------------------------
Image
Image [18] (04)
Macklemore & Ryan Lewis
Downtown (Featuring Eric Nally, Melle Mel, Kool Moe Dee & Grandmaster Caz)
[50-33-20-18]
---------------------------------------------------------------------------------------------------------
Image
Image [19] (11)
Mark Ronson
I Can't Lose (featuring Keyone Starr)
[36-30-27-24-21-18-14-8-9-11-19]
---------------------------------------------------------------------------------------------------------
Image
Image [20] (14)
Foals
What Went Down
[43-37-35-33-29-28-25-30-25-23-17-15-16-20]
---------------------------------------------------------------------------------------------------------
Image
Image [21] (07)
Mary Lambert
She Keeps Me Warm
[34-16-12-9-11-18-21]
---------------------------------------------------------------------------------------------------------
Image
Image [22] (08)
Major Lazer
Powerful (Featuring Ellie Goulding & Tarrus Riley)
[49-44-38-33-26-25-23-22]
---------------------------------------------------------------------------------------------------------
Image
Image [23] (14)
Janet Jackson
No Sleeep
[5-1-1-1-2-3-5-4-9-10-13-14-19-23]
---------------------------------------------------------------------------------------------------------
Image
Image [24] (04)
Janet Jackson
Unbreakable
[31-30-28-24]
---------------------------------------------------------------------------------------------------------
Image
Image [25] (16)
The Weeknd
The Hills
[33-28-27-27-26-23-23-23-26-27-31-30-21-20-21-25]
---------------------------------------------------------------------------------------------------------
Image
Image [26] (12)
X Ambassadors
Renegades
[23-10-7-6-6-8-8-11-14-18-22-26]
---------------------------------------------------------------------------------------------------------
Image
Image [27] (07)
Lana Del Rey
High By The Beach
[50-35-20-20-23-24-27]
---------------------------------------------------------------------------------------------------------
Image
Image [28] (01)
Lady Gaga
Til It Happens To You

[28]
---------------------------------------------------------------------------------------------------------
Image
Image [29] (03)
Halsey
New Americana
[38-34-29]
---------------------------------------------------------------------------------------------------------
Image
Image [30] (08)
Marina & The Diamonds
Blue
[40-39-36-29-28-28-26-30]
---------------------------------------------------------------------------------------------------------
Image
Image [31] (04)
Imagine Dragons
Roots
[39-35-32-31]
---------------------------------------------------------------------------------------------------------
Image
Image [32] (10)
Leona Lewis
I Am
[27-19-14-12-13-13-19-22-25-32]
---------------------------------------------------------------------------------------------------------
Image
Image [33] (06)
Noel Gallagher's High Flying Birds
Lock All The Doors
[45-37-34-31-30-33]
---------------------------------------------------------------------------------------------------------
Image
Image [34] (05)
The Common Linnets
We Don't Make The Wind Blow
[49-41-39-37-34]
---------------------------------------------------------------------------------------------------------
Image
Image [35] (18)
twenty one pilots
Stressed Out
[35-32-31-24-20-17-15-9-5-4-3-6-6-8-11-17-27-35]
---------------------------------------------------------------------------------------------------------
Image
Image [36] (09)
Of Monsters And Men
Empire
[21-19-15-14-17-16-21-29-36]
---------------------------------------------------------------------------------------------------------
Image
Image [37] (04)
Lana Del Rey
Terrence Loves You
[46-46-44-39-37]
---------------------------------------------------------------------------------------------------------
Image
Image [38] (12)
The Fratellis
Baby, Don't You Lie To Me!
[34-24-12-11-7-10-12-15-18-26-31-38]
---------------------------------------------------------------------------------------------------------
Image
Image [39] (15)
Beck
Dreams
[27-17-13-11-8-8-9-12-13-15-18-22-27-33-39]
---------------------------------------------------------------------------------------------------------
Image
Image [40] (02)
Ellie Goulding
On My Mind
[50-40]
---------------------------------------------------------------------------------------------------------
Image
Image [41] (03)
Matt Nathanson
Show Me Your Fangs
[43-42-41]
---------------------------------------------------------------------------------------------------------
Image
Image [42] (06)
George Ezra
Barcelona
[42-39-37-34-38-42]
---------------------------------------------------------------------------------------------------------
Image
Image [43] (03)
The View
Marriage
[46-43-43]
---------------------------------------------------------------------------------------------------------
Image
Image [44] (02)
Jewel
My Father's Daughter (Featuring Dolly Parton)
[49-44]
---------------------------------------------------------------------------------------------------------
Image
Image [45] (05)
The Neighbourhood
R.I.P. 2 My Youth
[44-42-40-40-45]
---------------------------------------------------------------------------------------------------------
Image
Image [46] (14)
Nate Ruess
Nothing Without Love
[46-24-18-17-16-20-21-19-21-24-27-29-36-46]
---------------------------------------------------------------------------------------------------------
Image
Image [47] (16)
Simply Red
Shine On
[21-14-11-12-12-14-14-18-23-24-20-22-30-32-44-47]
---------------------------------------------------------------------------------------------------------
Image
Image [48] (07)
Jason Derülo
Cheyenne
[26-19-21-23-24-35-48]
---------------------------------------------------------------------------------------------------------
Image
Image [49] (18)
Brandon Flowers
I Can Change
[11-7-3-2-2-4-7-13-15-17-17-20-24-27-33-37-41-49]
---------------------------------------------------------------------------------------------------------
Image
Image [50] (14)
Ross Copperman
Hunger
[1-2-3-7-11-13-18-23-27-28-35-41-48-50]
---------------------------------------------------------------------------------------------------------
OUT
---------------------------------------------------------------------------------------------------------
[45] (09)
Leona Lewis
Thunder
[44-41-36-31-28-26-25-36-45]
---------------------------------------------------------------------------------------------------------
[46] (01)
Lana Del Rey
Music To Watch Boys By
[46]
---------------------------------------------------------------------------------------------------------
[47] (16)
Kodaline
Ready
[30-27-20-22-21-25-29-32-32-30-25-33-35-38-45-47]
---------------------------------------------------------------------------------------------------------
User avatar
LittleArsonist
Personal Assistant
 
Posts: 904
Joined: Wed Jan 14, 2004

Postby LittleArsonist » Thu Sep 24, 2015 6:49 pm

Tansike wrote:Love "Music To Watch Boys To", glad to see its entry.
mixed feelings for her new album....but woah, that Nina Simone cover was worth the wait.

I also like the new debuts by James Morrison and Ellie Goulding this week :)
pretty impressed by James...he always puts up some nice music...Ellie will surely be a grower :D
User avatar
LittleArsonist
Personal Assistant
 
Posts: 904
Joined: Wed Jan 14, 2004

Postby taraella » Fri Sep 25, 2015 1:49 am

Hi,
I like:

[05] (13)
Rachel Platten
Fight Song
[17] (15)
The Weeknd
Can't Feel My Face
[21] (07)
Mary Lambert
She Keeps Me Warm
Official Site http://bit.ly/1zObES5
Google my username for more about me
My Google Play (Free MP3s) http://bit.ly/1axVOPD
User avatar
taraella
Personal Assistant
 
Posts: 643
Joined: Tue Apr 30, 2013

Postby navi » Fri Sep 25, 2015 1:24 pm

:o
I don't hate women,
but don't like neither of your three new entries (sorry)
You may like this women (which i adore atm)
Roseau - New Glass
My year(s) in lists by Ivan (2008 - 2013)
User avatar
navi
Superstar
 
Posts: 9456
Joined: Wed Aug 14, 2013
Location: Zagreb/Croatia

Postby Tansike » Wed Sep 30, 2015 6:42 am

LittleArsonist wrote:mixed feelings for her new album....but woah, that Nina Simone cover was worth the wait.

...

pretty impressed by James...he always puts up some nice music...Ellie will surely be a grower :D
Yes! Glad you love the cover as well, it's sooo good 8-)

Can't wait for his album. And as for Ellie, it was a grower for me so far :)

...

Amazing number one this week! "Alive" is an instant hit for me, like it a lot :D

Also great debut for GaGa's soundtrack single. Another great track, love her vocals :)
User avatar
Tansike
Legend
 
Posts: 42263
Joined: Sat Jan 28, 2012
Location: Switzerland

Postby LittleArsonist » Thu Oct 01, 2015 8:58 pm

taraella wrote:Hi,
I like:

[05] (13)
Rachel Platten
Fight Song
[17] (15)
The Weeknd
Can't Feel My Face
[21] (07)
Mary Lambert
She Keeps Me Warm
thanks for checking my thread :D
User avatar
LittleArsonist
Personal Assistant
 
Posts: 904
Joined: Wed Jan 14, 2004

Postby LittleArsonist » Thu Oct 01, 2015 8:59 pm

I'm gonna check them out !! thanks navi :)
User avatar
LittleArsonist
Personal Assistant
 
Posts: 904
Joined: Wed Jan 14, 2004

Postby LittleArsonist » Thu Oct 01, 2015 9:00 pm

Tansike wrote:Amazing number one this week! "Alive" is an instant hit for me, like it a lot :D
ohhhhhhhhhhhhhhhh yes!!!!!!!! <3

Also great debut for GaGa's soundtrack single. Another great track, love her vocals :)
love she's keeping this way 8-)
User avatar
LittleArsonist
Personal Assistant
 
Posts: 904
Joined: Wed Jan 14, 2004

Postby LittleArsonist » Thu Oct 01, 2015 9:54 pm

cover
[TW] (WI)
artist
track title
[chartrun]
---------------------------------------------------------------------------------------------------------
50:NGS (40/52) - week ending October 4
---------------------------------------------------------------------------------------------------------

---------------------------------------------------------------------------------------------------------
Image
Image [01] (02)
Sia
Alive
[1-1]
---------------------------------------------------------------------------------------------------------
Image
Image [02] (03)
Paloma Faith
The Crazy Ones
[2-2-2]
---------------------------------------------------------------------------------------------------------
Image
Image [03] (02)
Sara Bareilles
She Used To Be Mine
[4-3]
---------------------------------------------------------------------------------------------------------
Image
Image [04] (03)
James Morrison
Demons
[17-9-4]
---------------------------------------------------------------------------------------------------------
Image
Image [05] (09)
Foals
Mountain At My Gates
[20-17-7-4-1-1-1-3-5]
---------------------------------------------------------------------------------------------------------
Image
Image [06] (14)
Rachel Platten
Fight Song
[7-2-2-4-7-10-11-11-7-6-2-4-5-6]
---------------------------------------------------------------------------------------------------------
Image
Image [07] (05)
Florence + The Machine
Queen Of Peace
[29-19-12-10-7]
---------------------------------------------------------------------------------------------------------
Image
Image [08] (07)
Alessia Cara
Here
[50-40-24-10-7-8-8]
---------------------------------------------------------------------------------------------------------
Image
Image [09] (08)
Birdy & RHODES
Let It All Go
[46-32-16-12-7-5-7-9]
---------------------------------------------------------------------------------------------------------
Image
Image [10] (04)
Kodaline
Love Will Set You Free
[13-15-12-10]
---------------------------------------------------------------------------------------------------------
Image
Image [11] (09)
Mumford & Sons
Ditmas
[11-9-10-9-10-16-14-15-11]
---------------------------------------------------------------------------------------------------------
Image
Image [12] (12)
The Vaccines
Dream Lover
[26-17-12-9-7-5-6-7-3-3-6-12]
---------------------------------------------------------------------------------------------------------
Image
Image [13] (12)
U2
Song for Someone
[3-1-1-1-2-4-5-4-6-9-11-13]
---------------------------------------------------------------------------------------------------------
Image
Image [14] (09)
Major Lazer
Powerful (Featuring Ellie Goulding & Tarrus Riley)
[49-44-38-33-26-25-23-22-14]
---------------------------------------------------------------------------------------------------------
Image
Image [15] (09)
The Maccabees
Marks To Prove It
[46-40-23-19-15-12-10-13-15]
---------------------------------------------------------------------------------------------------------
Image
Image [16] (05)
Janet Jackson
Unbreakable
[31-30-28-24-16]
---------------------------------------------------------------------------------------------------------
Image
Image [17] (01)
Janet Jackson
BURNITUP! (Featuring Missy Elliott)

[17]
---------------------------------------------------------------------------------------------------------
Image
Image [18] (16)
The Weeknd
Can't Feel My Face
[17-14-9-5-4-6-5-2-1-1-3-5-8-13-17-18]
---------------------------------------------------------------------------------------------------------
Image
Image [19] (05)
Macklemore & Ryan Lewis
Downtown (Featuring Eric Nally, Melle Mel, Kool Moe Dee & Grandmaster Caz)
[50-33-20-18-19]
---------------------------------------------------------------------------------------------------------
Image
Image [20] (08)
Mary Lambert
She Keeps Me Warm
[34-16-12-9-11-18-21-20]
---------------------------------------------------------------------------------------------------------
Image
Image [21] (14)
AWOLNATION
I Am
[46-8-5-3-2-4-3-3-1-3-5-8-14-21]
---------------------------------------------------------------------------------------------------------
Image
Image [22] (04)
Halsey
New Americana
[38-34-29-22]
---------------------------------------------------------------------------------------------------------
Image
Image [23] (15)
Editors
Marching Orders
[18-18-17-16-9-8-8-5-2-2-2-4-6-16-23]
---------------------------------------------------------------------------------------------------------
Image
Image [24] (02)
Lady Gaga
Til It Happens To You
[28-24]
---------------------------------------------------------------------------------------------------------
Image
Image [25] (12)
Mark Ronson
I Can't Lose (featuring Keyone Starr)
[36-30-27-24-21-18-14-8-9-11-19-25]
---------------------------------------------------------------------------------------------------------
Image
Image [26] (15)
Janet Jackson
No Sleeep
[5-1-1-1-2-3-5-4-9-10-13-14-19-23-26]
---------------------------------------------------------------------------------------------------------
Image
Image [27] (06)
The Common Linnets
We Don't Make The Wind Blow
[49-41-39-37-34-27]
---------------------------------------------------------------------------------------------------------
Image
Image [28] (15)
Foals
What Went Down
[43-37-35-33-29-28-25-30-25-23-17-15-16-20-28]
---------------------------------------------------------------------------------------------------------
Image
Image [29] (05)
Imagine Dragons
Roots
[39-35-32-31-29]
---------------------------------------------------------------------------------------------------------
Image
Image [30] (01)
Sam Smith
Writing's On The Wall

[30]
---------------------------------------------------------------------------------------------------------
Image
Image [31] (17)
The Weeknd
The Hills
[33-28-27-27-26-23-23-23-26-27-31-30-21-20-21-25-31]
---------------------------------------------------------------------------------------------------------
Image
Image [32] (03)
Ellie Goulding
On My Mind
[50-40-32]
---------------------------------------------------------------------------------------------------------
Image
Image [33] (08)
Lana Del Rey
High By The Beach
[50-35-20-20-23-24-27-33]
---------------------------------------------------------------------------------------------------------
Image
Image [34] (05)
Lana Del Rey
Terrence Loves You
[46-46-44-39-37-34]
---------------------------------------------------------------------------------------------------------
Image
Image [35] (09)
Marina & The Diamonds
Blue
[40-39-36-29-28-28-26-30-35]
---------------------------------------------------------------------------------------------------------
Image
Image [36] (01)
LP
Muddy Waters

[36]
---------------------------------------------------------------------------------------------------------
Image
Image [37] (13)
X Ambassadors
Renegades
[23-10-7-6-6-8-8-11-14-18-22-26-37]
---------------------------------------------------------------------------------------------------------
Image
Image [38] (11)
Leona Lewis
I Am
[27-19-14-12-13-13-19-22-25-32-38]
---------------------------------------------------------------------------------------------------------
Image
Image [39] (03)
Jewel
My Father's Daughter (Featuring Dolly Parton)
[49-44-39]
---------------------------------------------------------------------------------------------------------
Image
Image [40] (07)
Noel Gallagher's High Flying Birds
Lock All The Doors
[45-37-34-31-30-33-40]
---------------------------------------------------------------------------------------------------------
Image
Image [41] (10)
Of Monsters And Men
Empire
[21-19-15-14-17-16-21-29-36-41]
---------------------------------------------------------------------------------------------------------
Image
Image [42] (19)
twenty one pilots
Stressed Out
[35-32-31-24-20-17-15-9-5-4-3-6-6-8-11-17-27-35-42]
---------------------------------------------------------------------------------------------------------
Image
Image [43] (04)
The View
Marriage
[46-43-43-43]
---------------------------------------------------------------------------------------------------------
Image
Image [44] (16)
Beck
Dreams
[27-17-13-11-8-8-9-12-13-15-18-22-27-33-39-44]
---------------------------------------------------------------------------------------------------------
Image
Image [45] (07)
George Ezra
Barcelona
[42-39-37-34-38-42-45]
---------------------------------------------------------------------------------------------------------
Image
Image [46] (13)
The Fratellis
Baby, Don't You Lie To Me!
[34-24-12-11-7-10-12-15-18-26-31-38-46]
---------------------------------------------------------------------------------------------------------
Image
Image [47] (01)
A Great Big World
Hold Each Other (Featuring FUTURISTIC)

[47]
---------------------------------------------------------------------------------------------------------
Image
Image [48] (15)
Nate Ruess
Nothing Without Love
[46-24-18-17-16-20-21-19-21-24-27-29-36-46-48]
---------------------------------------------------------------------------------------------------------
Image
Image [49] (04)
Matt Nathanson
Show Me Your Fangs
[43-42-41-49]
---------------------------------------------------------------------------------------------------------
Image
Image [50] (06)
The Neighbourhood
R.I.P. 2 My Youth
[44-42-40-40-45-50]
---------------------------------------------------------------------------------------------------------
OUT
---------------------------------------------------------------------------------------------------------
[47] (16)
Simply Red
Shine On
[21-14-11-12-12-14-14-18-23-24-20-22-30-32-44-47]
---------------------------------------------------------------------------------------------------------
[48] (07)
Jason Derülo
Cheyenne
[26-19-21-23-24-35-48]
---------------------------------------------------------------------------------------------------------
[49] (18)
Brandon Flowers
I Can Change
[11-7-3-2-2-4-7-13-15-17-17-20-24-27-33-37-41-49]
---------------------------------------------------------------------------------------------------------
[50] (14)
Ross Copperman
Hunger
[1-2-3-7-11-13-18-23-27-28-35-41-48-50]
---------------------------------------------------------------------------------------------------------
User avatar
LittleArsonist
Personal Assistant
 
Posts: 904
Joined: Wed Jan 14, 2004

Postby Tansike » Wed Oct 07, 2015 8:08 am

Glad to see that leap for "Powerful"! :D One of the best songs of the year for me :o

Also love the entries for Janet Jackson and Sam this week :)
User avatar
Tansike
Legend
 
Posts: 42263
Joined: Sat Jan 28, 2012
Location: Switzerland

Postby LittleArsonist » Fri Oct 09, 2015 8:59 am

Tansike wrote:Glad to see that leap for "Powerful"! :D One of the best songs of the year for me :o
lot of surprise coming from me too :lol:

as for Janet, what do you think of the whole album? Production imo is far better than all her latest works.
User avatar
LittleArsonist
Personal Assistant
 
Posts: 904
Joined: Wed Jan 14, 2004

Postby LittleArsonist » Fri Oct 09, 2015 9:31 am

cover
[TW] (WI)
artist
track title
[chartrun]
---------------------------------------------------------------------------------------------------------
50:NGS (41/52) - week ending October 11
---------------------------------------------------------------------------------------------------------

---------------------------------------------------------------------------------------------------------
Image
Image [01] (04)
Paloma Faith
The Crazy Ones
[2-2-2-1]
---------------------------------------------------------------------------------------------------------
Image
Image [02] (03)
Sia
Alive
[1-1-2]
---------------------------------------------------------------------------------------------------------
Image
Image [03] (04)
James Morrison
Demons
[17-9-4-3]
---------------------------------------------------------------------------------------------------------
Image
Image [04] (03)
Sara Bareilles
She Used To Be Mine
[4-3-4]
---------------------------------------------------------------------------------------------------------
Image
Image [05] (10)
Major Lazer
Powerful (Featuring Ellie Goulding & Tarrus Riley)
[49-44-38-33-26-25-23-22-14-5]
---------------------------------------------------------------------------------------------------------
Image
Image [06] (10)
Foals
Mountain At My Gates
[20-17-7-4-1-1-1-3-5-6]
---------------------------------------------------------------------------------------------------------
Image
Image [07] (01)
Editors
Life Is A Fear

[7]
---------------------------------------------------------------------------------------------------------
Image
Image [08] (01)
The Weeknd
Often

[8]
---------------------------------------------------------------------------------------------------------
Image
Image [09] (09)
Birdy & RHODES
Let It All Go
[46-32-16-12-7-5-7-9-9]
---------------------------------------------------------------------------------------------------------
Image
Image [10] (15)
Rachel Platten
Fight Song
[7-2-2-4-7-10-11-11-7-6-2-4-5-6-10]
---------------------------------------------------------------------------------------------------------
Image
Image [11] (10)
Mumford & Sons
Ditmas
[11-9-10-9-10-16-14-15-11-11]
---------------------------------------------------------------------------------------------------------
Image
Image [12] (08)
Alessia Cara
Here
[50-40-24-10-7-8-8-12]
---------------------------------------------------------------------------------------------------------
Image
Image [13] (06)
Janet Jackson
Unbreakable
[31-30-28-24-16-13]
---------------------------------------------------------------------------------------------------------
Image
Image [14] (06)
Florence + The Machine
Queen Of Peace
[29-19-12-10-7-14]
---------------------------------------------------------------------------------------------------------
Image
Image [15] (03)
Lady Gaga
Til It Happens To You
[28-24-15]
---------------------------------------------------------------------------------------------------------
Image
Image [16] (05)
Kodaline
Love Will Set You Free
[13-15-12-10-16]
---------------------------------------------------------------------------------------------------------
Image
Image [17] (06)
Macklemore & Ryan Lewis
Downtown (Featuring Eric Nally, Melle Mel, Kool Moe Dee & Grandmaster Caz)
[50-33-20-18-19-17]
---------------------------------------------------------------------------------------------------------
Image
Image [18] (10)
The Maccabees
Marks To Prove It
[46-40-23-19-15-12-10-13-15-18]
---------------------------------------------------------------------------------------------------------
Image
Image [19] (13)
The Vaccines
Dream Lover
[26-17-12-9-7-5-6-7-3-3-6-12-19]
---------------------------------------------------------------------------------------------------------
Image
Image [20] (02)
Sam Smith
Writing's On The Wall
[30-20]
---------------------------------------------------------------------------------------------------------
Image
Image [21] (02)
Janet Jackson
BURNITUP! (Featuring Missy Elliott)
[17-21]
---------------------------------------------------------------------------------------------------------
Image
Image [22] (13)
U2
Song for Someone
[3-1-1-1-2-4-5-4-6-9-11-13-22]
---------------------------------------------------------------------------------------------------------
Image
Image [23] (05)
Halsey
New Americana
[38-34-29-22-23]
---------------------------------------------------------------------------------------------------------
Image
Image [24] (13)
Mark Ronson
I Can't Lose (featuring Keyone Starr)
[36-30-27-24-21-18-14-8-9-11-19-25-24]
---------------------------------------------------------------------------------------------------------
Image
Image [25] (17)
The Weeknd
Can't Feel My Face
[17-14-9-5-4-6-5-2-1-1-3-5-8-13-17-18-25]
---------------------------------------------------------------------------------------------------------
Image
Image [26] (04)
Ellie Goulding
On My Mind
[50-40-32-26]
---------------------------------------------------------------------------------------------------------
Image
Image [27] (15)
AWOLNATION
I Am
[46-8-5-3-2-4-3-3-1-3-5-8-14-21-27]
---------------------------------------------------------------------------------------------------------
Image
Image [28] (06)
Imagine Dragons
Roots
[39-35-32-31-29-28]
---------------------------------------------------------------------------------------------------------
Image
Image [29] (16)
Editors
Marching Orders
[18-18-17-16-9-8-8-5-2-2-2-4-6-16-23-29]
---------------------------------------------------------------------------------------------------------
Image
Image [30] (16)
Janet Jackson
No Sleeep
[5-1-1-1-2-3-5-4-9-10-13-14-19-23-26-30]
---------------------------------------------------------------------------------------------------------
Image
Image [31] (09)
Mary Lambert
She Keeps Me Warm
[34-16-12-9-11-18-21-20-31]
---------------------------------------------------------------------------------------------------------
Image
Image [32] (06)
Lana Del Rey
Terrence Loves You
[46-46-44-39-37-34-32]
---------------------------------------------------------------------------------------------------------
Image
Image [33] (12)
Leona Lewis
I Am
[27-19-14-12-13-13-19-22-25-32-38-33]
---------------------------------------------------------------------------------------------------------
Image
Image [34] (16)
Foals
What Went Down
[43-37-35-33-29-28-25-30-25-23-17-15-16-20-28-34]
---------------------------------------------------------------------------------------------------------
Image
Image [35] (18)
The Weeknd
The Hills
[33-28-27-27-26-23-23-23-26-27-31-30-21-20-21-25-31-35]
---------------------------------------------------------------------------------------------------------
Image
Image [36] (09)
Lana Del Rey
High By The Beach
[50-35-20-20-23-24-27-33-36]
---------------------------------------------------------------------------------------------------------
Image
Image [37] (07)
The Common Linnets
We Don't Make The Wind Blow
[49-41-39-37-34-27-37]
---------------------------------------------------------------------------------------------------------
Image
Image [38] (10)
Marina & The Diamonds
Blue
[40-39-36-29-28-28-26-30-35-38]
---------------------------------------------------------------------------------------------------------
Image
Image [39] (02)
LP
Muddy Waters
[36-39]
---------------------------------------------------------------------------------------------------------
Image
Image [40] (05)
The View
Marriage
[46-43-43-43-40]
---------------------------------------------------------------------------------------------------------
Image
Image [41] (02)
A Great Big World
Hold Each Other (Featuring FUTURISTIC)
[47-41]
---------------------------------------------------------------------------------------------------------
Image
Image [42] (05)
Matt Nathanson
Show Me Your Fangs
[43-42-41-49-42]
---------------------------------------------------------------------------------------------------------
Image
Image [43] (14)
The Fratellis
Baby, Don't You Lie To Me!
[34-24-12-11-7-10-12-15-18-26-31-38-46-43]
---------------------------------------------------------------------------------------------------------
Image
Image [44] (11)
Of Monsters And Men
Empire
[21-19-15-14-17-16-21-29-36-41-44]
---------------------------------------------------------------------------------------------------------
Image
Image [45] (14)
X Ambassadors
Renegades
[23-10-7-6-6-8-8-11-14-18-22-26-37-45]
---------------------------------------------------------------------------------------------------------
Image
Image [46] (08)
George Ezra
Barcelona
[42-39-37-34-38-42-45-46]
---------------------------------------------------------------------------------------------------------
Image
Image [47] (08)
Noel Gallagher's High Flying Birds
Lock All The Doors
[45-37-34-31-30-33-40-47]
---------------------------------------------------------------------------------------------------------
Image
Image [48] (17)
Beck
Dreams
[27-17-13-11-8-8-9-12-13-15-18-22-27-33-39-44-48]
---------------------------------------------------------------------------------------------------------
Image
Image [49] (04)
Jewel
My Father's Daughter (Featuring Dolly Parton)
[49-44-39-49]
---------------------------------------------------------------------------------------------------------
Image
Image [50] (20)
twenty one pilots
Stressed Out
[35-32-31-24-20-17-15-9-5-4-3-6-6-8-11-17-27-35-42-50]
---------------------------------------------------------------------------------------------------------
OUT
---------------------------------------------------------------------------------------------------------
[48] (15)
Nate Ruess
Nothing Without Love
[46-24-18-17-16-20-21-19-21-24-27-29-36-46-48]
---------------------------------------------------------------------------------------------------------
[50] (06)
The Neighbourhood
R.I.P. 2 My Youth
[44-42-40-40-45-50]
---------------------------------------------------------------------------------------------------------
User avatar
LittleArsonist
Personal Assistant
 
Posts: 904
Joined: Wed Jan 14, 2004

Postby Tansike » Wed Oct 14, 2015 10:16 am

Well, i can't say a lot about Janet's album. I heard it and i'm positively surprised, as it's really good, but i never heard an album from her in full before :oops: I heard some tracks of "All Of Me", and i obviously know lots of singles, but that's it. So based on that, i really like "Unbreakable" and i think it sounds very modern.

Wow, another leap for "Powerful" - i'm loving it!! :o :D
Also what a great debut for The Weeknd's "Often". A great song (apart from the lyrics, of course...)

Love to see GaGa, Ellie Goulding and Lana climbing too with their songs :)
User avatar
Tansike
Legend
 
Posts: 42263
Joined: Sat Jan 28, 2012
Location: Switzerland

Postby LittleArsonist » Thu Oct 15, 2015 8:21 am

Tansike wrote:Well, i can't say a lot about Janet's album. I heard it and i'm positively surprised, as it's really good, but i never heard an album from her in full before :oops: I heard some tracks of "All Of Me", and i obviously know lots of singles, but that's it. So based on that, i really like "Unbreakable" and i think it sounds very modern.
you really should check out her best albums from the 90s... janet. and The Velvet Rope (that tops them all!)

Wow, another leap for "Powerful" - i'm loving it!! :o :D
it's not stopping! :lol:

Also what a great debut for The Weeknd's "Often". A great song (apart from the lyrics, of course...)
it was about time it debuted in my chart :P

Love to see GaGa, Ellie Goulding and Lana climbing too with their songs :)
pop-hysteria right now :o
User avatar
LittleArsonist
Personal Assistant
 
Posts: 904
Joined: Wed Jan 14, 2004

Postby LittleArsonist » Thu Oct 15, 2015 9:23 am

cover
[TW] (WI)
artist
track title
[chartrun]
---------------------------------------------------------------------------------------------------------
50:NGS (42/52) - week ending October 18
---------------------------------------------------------------------------------------------------------

---------------------------------------------------------------------------------------------------------
Image
Image [01] (01)
Bloc Party
The Love Within

[1]
---------------------------------------------------------------------------------------------------------
Image
Image [02] (02)
Editors
Life Is A Fear
[7-2]
---------------------------------------------------------------------------------------------------------
Image
Image [03] (01)
The 1975
Love Me

[3]
---------------------------------------------------------------------------------------------------------
Image
Image [04] (05)
Paloma Faith
The Crazy Ones
[2-2-2-1-4]
---------------------------------------------------------------------------------------------------------
Image
Image [05] (05)
James Morrison
Demons
[17-9-4-3-5]
---------------------------------------------------------------------------------------------------------
Image
Image [06] (04)
Sia
Alive
[1-1-2-6]
---------------------------------------------------------------------------------------------------------
Image
Image [07] (11)
Major Lazer
Powerful (Featuring Ellie Goulding & Tarrus Riley)
[49-44-38-33-26-25-23-22-14-5-7]
---------------------------------------------------------------------------------------------------------
Image
Image [08] (04)
Sara Bareilles
She Used To Be Mine
[4-3-4-8]
---------------------------------------------------------------------------------------------------------
Image
Image [09] (02)
The Weeknd
Often
[8-9]
---------------------------------------------------------------------------------------------------------
Image
Image [10] (11)
Foals
Mountain At My Gates
[20-17-7-4-1-1-1-3-5-6-10]
---------------------------------------------------------------------------------------------------------
Image
Image [11] (11)
Mumford & Sons
Ditmas
[11-9-10-9-10-16-14-15-11-11-11]
---------------------------------------------------------------------------------------------------------
Image
Image [12] (10)
Birdy & RHODES
Let It All Go
[46-32-16-12-7-5-7-9-9-12]
---------------------------------------------------------------------------------------------------------
Image
Image [13] (07)
Janet Jackson
Unbreakable
[31-30-28-24-16-13-13]
---------------------------------------------------------------------------------------------------------
Image
Image [14] (04)
Lady Gaga
Til It Happens To You
[28-24-15-14]
---------------------------------------------------------------------------------------------------------
Image
Image [15] (16)
Rachel Platten
Fight Song
[7-2-2-4-7-10-11-11-7-6-2-4-5-6-10-15]
---------------------------------------------------------------------------------------------------------
Image
Image [16] (09)
Alessia Cara
Here
[50-40-24-10-7-8-8-12-16]
---------------------------------------------------------------------------------------------------------
Image
Image [17] (03)
Sam Smith
Writing's On The Wall
[30-20-17]
---------------------------------------------------------------------------------------------------------
Image
Image [18] (07)
Florence + The Machine
Queen Of Peace
[29-19-12-10-7-14-18]
---------------------------------------------------------------------------------------------------------
Image
Image [19] (07)
Imagine Dragons
Roots
[39-35-32-31-29-28-19]
---------------------------------------------------------------------------------------------------------
Image
Image [20] (06)
Kodaline
Love Will Set You Free
[13-15-12-10-16-20]
---------------------------------------------------------------------------------------------------------
Image
Image [21] (11)
The Maccabees
Marks To Prove It
[46-40-23-19-15-12-10-13-15-18-21]
---------------------------------------------------------------------------------------------------------
Image
Image [22] (07)
Lana Del Rey
Terrence Loves You
[46-46-44-39-37-34-32-22]
---------------------------------------------------------------------------------------------------------
Image
Image [23] (07)
Macklemore & Ryan Lewis
Downtown (Featuring Eric Nally, Melle Mel, Kool Moe Dee & Grandmaster Caz)
[50-33-20-18-19-17-23]
---------------------------------------------------------------------------------------------------------
Image
Image [24] (03)
Janet Jackson
BURNITUP! (Featuring Missy Elliott)
[17-21-24]
---------------------------------------------------------------------------------------------------------
Image
Image [25] (05)
Ellie Goulding
On My Mind
[50-40-32-26-25]
---------------------------------------------------------------------------------------------------------
Image
Image [26] (14)
U2
Song for Someone
[3-1-1-1-2-4-5-4-6-9-11-13-22-26]
---------------------------------------------------------------------------------------------------------
Image
Image [27] (14)
Mark Ronson
I Can't Lose (featuring Keyone Starr)
[36-30-27-24-21-18-14-8-9-11-19-25-24-27]
---------------------------------------------------------------------------------------------------------
Image
Image [28] (14)
The Vaccines
Dream Lover
[26-17-12-9-7-5-6-7-3-3-6-12-19-28]
---------------------------------------------------------------------------------------------------------
Image
Image [29] (06)
Halsey
New Americana
[38-34-29-22-23-29]
---------------------------------------------------------------------------------------------------------
Image
Image [30] (18)
The Weeknd
Can't Feel My Face
[17-14-9-5-4-6-5-2-1-1-3-5-8-13-17-18-25-30]
---------------------------------------------------------------------------------------------------------
Image
Image [31] (17)
Editors
Marching Orders
[18-18-17-16-9-8-8-5-2-2-2-4-6-16-23-29-31]
---------------------------------------------------------------------------------------------------------
Image
Image [32] (13)
Leona Lewis
I Am
[27-19-14-12-13-13-19-22-25-32-38-33-32]
---------------------------------------------------------------------------------------------------------
Image
Image [33] (16)
AWOLNATION
I Am
[46-8-5-3-2-4-3-3-1-3-5-8-14-21-27-33]
---------------------------------------------------------------------------------------------------------
Image
Image [34] (10)
Lana Del Rey
High By The Beach
[50-35-20-20-23-24-27-33-36-34]
---------------------------------------------------------------------------------------------------------
Image
Image [35] (08)
The Common Linnets
We Don't Make The Wind Blow
[49-41-39-37-34-27-37-35]
---------------------------------------------------------------------------------------------------------
Image
Image [36] (17)
Janet Jackson
No Sleeep
[5-1-1-1-2-3-5-4-9-10-13-14-19-23-26-30-36]
---------------------------------------------------------------------------------------------------------
Image
Image [37] (19)
The Weeknd
The Hills
[33-28-27-27-26-23-23-23-26-27-31-30-21-20-21-25-31-35-37]
---------------------------------------------------------------------------------------------------------
Image
Image [38] (06)
The View
Marriage
[46-43-43-43-40-38]
---------------------------------------------------------------------------------------------------------
Image
Image [39] (10)
Mary Lambert
She Keeps Me Warm
[34-16-12-9-11-18-21-20-31-39]
---------------------------------------------------------------------------------------------------------
Image
Image [40] (17)
Foals
What Went Down
[43-37-35-33-29-28-25-30-25-23-17-15-16-20-28-34-40]
---------------------------------------------------------------------------------------------------------
Image
Image [41] (03)
LP
Muddy Waters
[36-39-41]
---------------------------------------------------------------------------------------------------------
Image
Image [42] (11)
Marina & The Diamonds
Blue
[40-39-36-29-28-28-26-30-35-38-42]
---------------------------------------------------------------------------------------------------------
Image
Image [43] (01)
Jamie Lawson
Wasn't Expecting That

[43]
---------------------------------------------------------------------------------------------------------
Image
Image [44] (01)
Imagine Dragons
I Was Me

[44]
---------------------------------------------------------------------------------------------------------
Image
Image [45] (06)
Matt Nathanson
Show Me Your Fangs
[43-42-41-49-42-45]
---------------------------------------------------------------------------------------------------------
Image
Image [46] (03)
A Great Big World
Hold Each Other (Featuring FUTURISTIC)
[47-41-46]
---------------------------------------------------------------------------------------------------------
Image
Image [47] (01)
Ellie Goulding
Something In The Way You Move

[47]
---------------------------------------------------------------------------------------------------------
Image
Image [48] (18)
Beck
Dreams
[27-17-13-11-8-8-9-12-13-15-18-22-27-33-39-44-48-48]
---------------------------------------------------------------------------------------------------------
Image
Image [49] (15)
The Fratellis
Baby, Don't You Lie To Me!
[34-24-12-11-7-10-12-15-18-26-31-38-46-43-49]
---------------------------------------------------------------------------------------------------------
Image
Image [50] (15)
X Ambassadors
Renegades
[23-10-7-6-6-8-8-11-14-18-22-26-37-45-50]
---------------------------------------------------------------------------------------------------------
OUT
---------------------------------------------------------------------------------------------------------
[44] (11)
Of Monsters And Men
Empire
[21-19-15-14-17-16-21-29-36-41-44]
---------------------------------------------------------------------------------------------------------
[46] (08)
George Ezra
Barcelona
[42-39-37-34-38-42-45-46]
---------------------------------------------------------------------------------------------------------
[47] (08)
Noel Gallagher's High Flying Birds
Lock All The Doors
[45-37-34-31-30-33-40-47]
---------------------------------------------------------------------------------------------------------
[49] (04)
Jewel
My Father's Daughter (Featuring Dolly Parton)
[49-44-39-49]
---------------------------------------------------------------------------------------------------------
[50] (20)
twenty one pilots
Stressed Out
[35-32-31-24-20-17-15-9-5-4-3-6-6-8-11-17-27-35-42-50]
---------------------------------------------------------------------------------------------------------
User avatar
LittleArsonist
Personal Assistant
 
Posts: 904
Joined: Wed Jan 14, 2004

Postby navi » Thu Oct 15, 2015 12:59 pm

WOW WOW
Maybe for the first time i absolutely adore your top 3
(at first i wasn't thrilled by new Bloc party song,
but after few listens i love it 8-) )
My year(s) in lists by Ivan (2008 - 2013)
User avatar
navi
Superstar
 
Posts: 9456
Joined: Wed Aug 14, 2013
Location: Zagreb/Croatia

Postby Tansike » Wed Oct 21, 2015 7:13 am

LittleArsonist wrote:you really should check out her best albums from the 90s... janet. and The Velvet Rope (that tops them all!)
Thanks, i try to check them out when i've got some free time :)

Great to see "Roots" being a Top20 hit for Imagine Dragons. I really liked the song when it came out, but i'm already kinda over it by now. Still a nice song and it's so sad they didn't get a hit for so long now :(

Also great increases for "Terrence Loves You", "On My Mind" and also nice debut for Ellie's other track :)
User avatar
Tansike
Legend
 
Posts: 42263
Joined: Sat Jan 28, 2012
Location: Switzerland

Return to Personal Charts