50:иgѕ w/e October 7 - and still crying

Moderators: JSparksFan, tdc2000, FreakyFlyBry

 

Postby LittleArsonist » Thu Oct 22, 2015 9:48 pm

navi wrote:WOW WOW
Maybe for the first time i absolutely adore your top 3
(at first i wasn't thrilled by new Bloc party song,
but after few listens i love it 8-) )
that's quite an achievement for me :D 8-)
User avatar
LittleArsonist
Personal Assistant
 
Posts: 939
Joined: Wed Jan 14, 2004

Postby LittleArsonist » Thu Oct 22, 2015 9:50 pm

Tansike wrote:
LittleArsonist wrote:you really should check out her best albums from the 90s... janet. and The Velvet Rope (that tops them all!)
Thanks, i try to check them out when i've got some free time :)
what's "free time"?!?! I so understand you :lol:

Great to see "Roots" being a Top20 hit for Imagine Dragons. I really liked the song when it came out, but i'm already kinda over it by now. Still a nice song and it's so sad they didn't get a hit for so long now :(
quite the opposite to me...I needed some time to appreciate it. I was sure Smoke + Mirrors was going to be more successful but so far I guess it was not that much so. Disappointing. It's a good album.

"On My Mind" and also nice debut for Ellie's other track :)
I kind of like it more than OMM...and this week the third pre-single is out! :o
User avatar
LittleArsonist
Personal Assistant
 
Posts: 939
Joined: Wed Jan 14, 2004

Postby LittleArsonist » Thu Oct 22, 2015 10:19 pm

cover
[TW] (WI)
artist
track title
[chartrun]
---------------------------------------------------------------------------------------------------------
50:NGS (43/52) - week ending October 25
---------------------------------------------------------------------------------------------------------

---------------------------------------------------------------------------------------------------------
Image
Image [01] (02)
Bloc Party
The Love Within
[1-1]
---------------------------------------------------------------------------------------------------------
Image
Image [02] (02)
The 1975
Love Me
[3-2]
---------------------------------------------------------------------------------------------------------
Image
Image [03] (03)
Editors
Life Is A Fear
[7-2-3]
---------------------------------------------------------------------------------------------------------
Image
Image [04] (05)
Sia
Alive
[1-1-2-6-4]
---------------------------------------------------------------------------------------------------------
Image
Image [05] (03)
The Weeknd
Often
[8-9-5]
---------------------------------------------------------------------------------------------------------
Image
Image [06] (06)
Paloma Faith
The Crazy Ones
[2-2-2-1-4-6]
---------------------------------------------------------------------------------------------------------
Image
Image [07] (06)
James Morrison
Demons
[17-9-4-3-5-7]
---------------------------------------------------------------------------------------------------------
Image
Image [08] (02)
Jamie Lawson
Wasn't Expecting That
[43-8]
---------------------------------------------------------------------------------------------------------
Image
Image [09] (05)
Sara Bareilles
She Used To Be Mine
[4-3-4-8-9]
---------------------------------------------------------------------------------------------------------
Image
Image [10] (12)
Major Lazer
Powerful (Featuring Ellie Goulding & Tarrus Riley)
[49-44-38-33-26-25-23-22-14-5-7-10]
---------------------------------------------------------------------------------------------------------
Image
Image [11] (05)
Lady Gaga
Til It Happens To You
[28-24-15-14-11]
---------------------------------------------------------------------------------------------------------
Image
Image [12] (12)
Foals
Mountain At My Gates
[20-17-7-4-1-1-1-3-5-6-10-12]
---------------------------------------------------------------------------------------------------------
Image
Image [13] (04)
Sam Smith
Writing's On The Wall
[30-20-17-13]
---------------------------------------------------------------------------------------------------------
Image
Image [14] (11)
Birdy & RHODES
Let It All Go
[46-32-16-12-7-5-7-9-9-12-14]
---------------------------------------------------------------------------------------------------------
Image
Image [15] (08)
Janet Jackson
Unbreakable
[31-30-28-24-16-13-13-15]
---------------------------------------------------------------------------------------------------------
Image
Image [16] (08)
Lana Del Rey
Terrence Loves You
[46-46-44-39-37-34-32-22-16]
---------------------------------------------------------------------------------------------------------
Image
Image [17] (08)
Imagine Dragons
Roots
[39-35-32-31-29-28-19-17]
---------------------------------------------------------------------------------------------------------
Image
Image [18] (12)
Mumford & Sons
Ditmas
[11-9-10-9-10-16-14-15-11-11-11-18]
---------------------------------------------------------------------------------------------------------
Image
Image [19] (02)
Ellie Goulding
Something In The Way You Move
[47-19]
---------------------------------------------------------------------------------------------------------
Image
Image [20] (17)
Rachel Platten
Fight Song
[7-2-2-4-7-10-11-11-7-6-2-4-5-6-10-15-20]
---------------------------------------------------------------------------------------------------------
Image
Image [21] (10)
Alessia Cara
Here
[50-40-24-10-7-8-8-12-16-21]
---------------------------------------------------------------------------------------------------------
Image
Image [22] (08)
Florence + The Machine
Queen Of Peace
[29-19-12-10-7-14-18-22]
---------------------------------------------------------------------------------------------------------
Image
Image [23] (12)
The Maccabees
Marks To Prove It
[46-40-23-19-15-12-10-13-15-18-21-23]
---------------------------------------------------------------------------------------------------------
Image
Image [24] (06)
Ellie Goulding
On My Mind
[50-40-32-26-25-24]
---------------------------------------------------------------------------------------------------------
Image
Image [25] (07)
Kodaline
Love Will Set You Free
[13-15-12-10-16-20-25]
---------------------------------------------------------------------------------------------------------
Image
Image [26] (04)
Janet Jackson
BURNITUP! (Featuring Missy Elliott)
[17-21-24-26]
---------------------------------------------------------------------------------------------------------
Image
Image [27] (08)
Macklemore & Ryan Lewis
Downtown (Featuring Eric Nally, Melle Mel, Kool Moe Dee & Grandmaster Caz)
[50-33-20-18-19-17-23-27]
---------------------------------------------------------------------------------------------------------
Image
Image [28] (15)
Mark Ronson
I Can't Lose (featuring Keyone Starr)
[36-30-27-24-21-18-14-8-9-11-19-25-24-27-28]
---------------------------------------------------------------------------------------------------------
Image
Image [29] (15)
The Vaccines
Dream Lover
[26-17-12-9-7-5-6-7-3-3-6-12-19-28-29]
---------------------------------------------------------------------------------------------------------
Image
Image [30] (07)
Halsey
New Americana
[38-34-29-22-23-29-30]
---------------------------------------------------------------------------------------------------------
Image
Image [31] (13)
Florence + The Machine
Delilah

[26-26-23-24-22-26-35-39-44-47-42-45 // 31]
---------------------------------------------------------------------------------------------------------
Image
Image [32] (15)
U2
Song for Someone
[3-1-1-1-2-4-5-4-6-9-11-13-22-26-32]
---------------------------------------------------------------------------------------------------------
Image
Image [33] (09)
The Common Linnets
We Don't Make The Wind Blow
[49-41-39-37-34-27-37-35-33]
---------------------------------------------------------------------------------------------------------
Image
Image [34] (19)
The Weeknd
Can't Feel My Face
[17-14-9-5-4-6-5-2-1-1-3-5-8-13-17-18-25-30-34]
---------------------------------------------------------------------------------------------------------
Image
Image [35] (14)
Leona Lewis
I Am
[27-19-14-12-13-13-19-22-25-32-38-33-32-35]
---------------------------------------------------------------------------------------------------------
Image
Image [36] (18)
Editors
Marching Orders
[18-18-17-16-9-8-8-5-2-2-2-4-6-16-23-29-31-36]
---------------------------------------------------------------------------------------------------------
Image
Image [37] (17)
AWOLNATION
I Am
[46-8-5-3-2-4-3-3-1-3-5-8-14-21-27-33-37]
---------------------------------------------------------------------------------------------------------
Image
Image [38] (07)
The View
Marriage
[46-43-43-43-40-38-38]
---------------------------------------------------------------------------------------------------------
Image
Image [39] (18)
Janet Jackson
No Sleeep
[5-1-1-1-2-3-5-4-9-10-13-14-19-23-26-30-36-39]
---------------------------------------------------------------------------------------------------------
Image
Image [40] (11)
Lana Del Rey
High By The Beach
[50-35-20-20-23-24-27-33-36-34-40]
---------------------------------------------------------------------------------------------------------
Image
Image [41] (02)
Imagine Dragons
I Was Me
[44-41]
---------------------------------------------------------------------------------------------------------
Image
Image [42] (11)
Mary Lambert
She Keeps Me Warm
[34-16-12-9-11-18-21-20-31-39-42]
---------------------------------------------------------------------------------------------------------
Image
Image [43] (20)
The Weeknd
The Hills
[33-28-27-27-26-23-23-23-26-27-31-30-21-20-21-25-31-35-37-43]
---------------------------------------------------------------------------------------------------------
Image
Image [44] (04)
LP
Muddy Waters
[36-39-41-44]
---------------------------------------------------------------------------------------------------------
Image
Image [45] (12)
Marina & The Diamonds
Blue
[40-39-36-29-28-28-26-30-35-38-42-45]
---------------------------------------------------------------------------------------------------------
Image
Image [46] (18)
Foals
What Went Down
[43-37-35-33-29-28-25-30-25-23-17-15-16-20-28-34-40-46]
---------------------------------------------------------------------------------------------------------
Image
Image [47] (07)
Matt Nathanson
Show Me Your Fangs
[43-42-41-49-42-45-47]
---------------------------------------------------------------------------------------------------------
Image
Image [48] (04)
A Great Big World
Hold Each Other (Featuring FUTURISTIC)
[47-41-46-48]
---------------------------------------------------------------------------------------------------------
Image
Image [49] (19)
Beck
Dreams
[27-17-13-11-8-8-9-12-13-15-18-22-27-33-39-44-48-48-49]
---------------------------------------------------------------------------------------------------------
Image
Image [50] (01)
Drake
Hotline Bling

[50]
---------------------------------------------------------------------------------------------------------
OUT
---------------------------------------------------------------------------------------------------------
[49] (15)
The Fratellis
Baby, Don't You Lie To Me!
[34-24-12-11-7-10-12-15-18-26-31-38-46-43-49]
---------------------------------------------------------------------------------------------------------
[50] (15)
X Ambassadors
Renegades
[23-10-7-6-6-8-8-11-14-18-22-26-37-45-50]
---------------------------------------------------------------------------------------------------------
User avatar
LittleArsonist
Personal Assistant
 
Posts: 939
Joined: Wed Jan 14, 2004

Postby navi » Fri Oct 23, 2015 12:15 pm

[49] (19) Beck - Dreams
[27-17-13-11-8-8-9-12-13-15-18-22-27-33-39-44-48-48-49]
---------------------------------------------------------------------------------------------------------
One of the songs of the year on his way out of your chart after disappointing peak at only # 8 :(
My year(s) in lists by Ivan (2008 - 2013)
User avatar
navi
Legend
 
Posts: 10122
Joined: Wed Aug 14, 2013
Location: Zagreb/Croatia

Postby heppolo » Fri Oct 23, 2015 12:30 pm

Bloc Party at no.1 feels great
Waffles are checked cookies
User avatar
heppolo
Legend
 
Posts: 22692
Joined: Sun May 17, 2009
Location: interchangeable

Postby Tansike » Wed Oct 28, 2015 8:02 am

Glad to see Lana in the Top20 with "Terrence Loves You" and GaGa near the Top10 with that beautiful ballad.
Wow, what a climb for "Something In The Way You Move" by Ellie Goulding! Even above "On My Mind" now... i'm still not sure about the song though. I hope the album has some better songs :oops:

Have to check out Drake's new entry. He's very successful with this...

LittleArsonist wrote:...I was sure Smoke + Mirrors was going to be more successful but so far I guess it was not that much so. Disappointing. It's a good album.
I agree. It's a very good one, a shame it flopped :(
User avatar
Tansike
Legend
 
Posts: 44330
Joined: Sat Jan 28, 2012
Location: Switzerland

Postby LittleArsonist » Thu Oct 29, 2015 11:11 pm

navi wrote:[49] (19) Beck - Dreams
[27-17-13-11-8-8-9-12-13-15-18-22-27-33-39-44-48-48-49]
---------------------------------------------------------------------------------------------------------
One of the songs of the year on his way out of your chart after disappointing peak at only # 8 :(
I know :cry:
User avatar
LittleArsonist
Personal Assistant
 
Posts: 939
Joined: Wed Jan 14, 2004

Postby LittleArsonist » Thu Oct 29, 2015 11:11 pm

heppolo wrote:Bloc Party at no.1 feels great
can't wait for Hymns :o
User avatar
LittleArsonist
Personal Assistant
 
Posts: 939
Joined: Wed Jan 14, 2004

Postby LittleArsonist » Thu Oct 29, 2015 11:14 pm

Tansike wrote:Glad to see Lana in the Top20 with "Terrence Loves You" and GaGa near the Top10 with that beautiful ballad.
to me it's the best track off Honeymoon...and that quote from David Bowie's track is just brilliant :oops:

same with Gaga song... love its atmosphere every week more

Wow, what a climb for "Something In The Way You Move" by Ellie Goulding! Even above "On My Mind" now... i'm still not sure about the song though. I hope the album has some better songs :oops:
now it's Army coming out next!! as you will see Ellie is in my chart 4 times this week :lol:

Have to check out Drake's new entry. He's very successful with this...
yep quite popular right now 8-)
User avatar
LittleArsonist
Personal Assistant
 
Posts: 939
Joined: Wed Jan 14, 2004

Postby LittleArsonist » Thu Oct 29, 2015 11:49 pm

cover
[TW] (WI)
artist
track title
[chartrun]
---------------------------------------------------------------------------------------------------------
50:NGS (44/52) - week ending November 1
---------------------------------------------------------------------------------------------------------

---------------------------------------------------------------------------------------------------------
Image
Image [01] (01)
Adele
Hello

[1]
---------------------------------------------------------------------------------------------------------
Image
Image [02] (03)
Jamie Lawson
Wasn't Expecting That
[43-8-2]
---------------------------------------------------------------------------------------------------------
Image
Image [03] (03)
Bloc Party
The Love Within
[1-1-3]
---------------------------------------------------------------------------------------------------------
Image
Image [04] (03)
The 1975
Love Me
[3-2-4]
---------------------------------------------------------------------------------------------------------
Image
Image [05] (04)
Editors
Life Is A Fear
[7-2-3-5]
---------------------------------------------------------------------------------------------------------
Image
Image [06] (06)
Sara Bareilles
She Used To Be Mine
[4-3-4-8-9-6]
---------------------------------------------------------------------------------------------------------
Image
Image [07] (06)
Sia
Alive
[1-1-2-6-4-7]
---------------------------------------------------------------------------------------------------------
Image
Image [08] (07)
Paloma Faith
The Crazy Ones
[2-2-2-1-4-6-8]
---------------------------------------------------------------------------------------------------------
Image
Image [09] (04)
The Weeknd
Often
[8-9-5-9]
---------------------------------------------------------------------------------------------------------
Image
Image [10] (03)
Ellie Goulding
Something In The Way You Move
[47-19-10]
---------------------------------------------------------------------------------------------------------
Image
Image [11] (07)
James Morrison
Demons
[17-9-4-3-5-7-11]
---------------------------------------------------------------------------------------------------------
Image
Image [12] (05)
Sam Smith
Writing's On The Wall
[30-20-17-13-12]
---------------------------------------------------------------------------------------------------------
Image
Image [13] (13)
Major Lazer
Powerful (Featuring Ellie Goulding & Tarrus Riley)
[49-44-38-33-26-25-23-22-14-5-7-10-13]
---------------------------------------------------------------------------------------------------------
Image
Image [14] (09)
Lana Del Rey
Terrence Loves You
[46-46-44-39-37-34-32-22-16-14]
---------------------------------------------------------------------------------------------------------
Image
Image [15] (13)
Foals
Mountain At My Gates
[20-17-7-4-1-1-1-3-5-6-10-12-15]
---------------------------------------------------------------------------------------------------------
Image
Image [16] (06)
Lady Gaga
Til It Happens To You
[28-24-15-14-11-16]
---------------------------------------------------------------------------------------------------------
Image
Image [17] (12)
Birdy & RHODES
Let It All Go
[46-32-16-12-7-5-7-9-9-12-14-17]
---------------------------------------------------------------------------------------------------------
Image
Image [18] (09)
Imagine Dragons
Roots
[39-35-32-31-29-28-19-17-18]
---------------------------------------------------------------------------------------------------------
Image
Image [19] (09)
Janet Jackson
Unbreakable
[31-30-28-24-16-13-13-15-19]
---------------------------------------------------------------------------------------------------------
Image
Image [20] (01)
Ellie Goulding
Lost And Found

[20]
---------------------------------------------------------------------------------------------------------
Image
Image [21] (01)
Elle King
Ex's & Oh's

[21]
---------------------------------------------------------------------------------------------------------
Image
Image [22] (09)
Florence + The Machine
Queen Of Peace
[29-19-12-10-7-14-18-22-22]
---------------------------------------------------------------------------------------------------------
Image
Image [23] (13)
The Maccabees
Marks To Prove It
[46-40-23-19-15-12-10-13-15-18-21-23-23]
---------------------------------------------------------------------------------------------------------
Image
Image [24] (13)
Mumford & Sons
Ditmas
[11-9-10-9-10-16-14-15-11-11-11-18-24]
---------------------------------------------------------------------------------------------------------
Image
Image [25] (01)
Hozier
Jackie And Wilson

[25]
---------------------------------------------------------------------------------------------------------
Image
Image [26] (07)
Ellie Goulding
On My Mind
[50-40-32-26-25-24-26]
---------------------------------------------------------------------------------------------------------
Image
Image [27] (16)
Mark Ronson
I Can't Lose (featuring Keyone Starr)
[36-30-27-24-21-18-14-8-9-11-19-25-24-27-28-27]
---------------------------------------------------------------------------------------------------------
Image
Image [28] (11)
Alessia Cara
Here
[50-40-24-10-7-8-8-12-16-21-28]
---------------------------------------------------------------------------------------------------------
Image
Image [29] (08)
The View
Marriage
[46-43-43-43-40-38-38-29]
---------------------------------------------------------------------------------------------------------
Image
Image [30] (05)
Janet Jackson
BURNITUP! (Featuring Missy Elliott)
[17-21-24-26-30]
---------------------------------------------------------------------------------------------------------
Image
Image [31] (08)
Kodaline
Love Will Set You Free
[13-15-12-10-16-20-25-31]
---------------------------------------------------------------------------------------------------------
Image
Image [32] (14)
Florence + The Machine
Delilah
[26-26-23-24-22-26-35-39-44-47-42-45 // 31-32]
---------------------------------------------------------------------------------------------------------
Image
Image [33] (18)
Rachel Platten
Fight Song
[7-2-2-4-7-10-11-11-7-6-2-4-5-6-10-15-20-33]
---------------------------------------------------------------------------------------------------------
Image
Image [34] (09)
Macklemore & Ryan Lewis
Downtown (Featuring Eric Nally, Melle Mel, Kool Moe Dee & Grandmaster Caz)
[50-33-20-18-19-17-23-27-34]
---------------------------------------------------------------------------------------------------------
Image
Image [35] (16)
The Vaccines
Dream Lover
[26-17-12-9-7-5-6-7-3-3-6-12-19-28-29-35]
---------------------------------------------------------------------------------------------------------
Image
Image [36] (10)
The Common Linnets
We Don't Make The Wind Blow
[49-41-39-37-34-27-37-35-33-36]
---------------------------------------------------------------------------------------------------------
Image
Image [37] (03)
Imagine Dragons
I Was Me
[44-41-37]
---------------------------------------------------------------------------------------------------------
Image
Image [38] (08)
Halsey
New Americana
[38-34-29-22-23-29-30-38]
---------------------------------------------------------------------------------------------------------
Image
Image [39] (16)
U2
Song for Someone
[3-1-1-1-2-4-5-4-6-9-11-13-22-26-32-39]
---------------------------------------------------------------------------------------------------------
Image
Image [40] (02)
Drake
Hotline Bling
[50-40]
---------------------------------------------------------------------------------------------------------
Image
Image [41] (19)
Editors
Marching Orders
[18-18-17-16-9-8-8-5-2-2-2-4-6-16-23-29-31-36-41]
---------------------------------------------------------------------------------------------------------
Image
Image [42] (15)
Leona Lewis
I Am
[27-19-14-12-13-13-19-22-25-32-38-33-32-35-42]
---------------------------------------------------------------------------------------------------------
Image
Image [43] (12)
Lana Del Rey
High By The Beach
[50-35-20-20-23-24-27-33-36-34-40-43]
---------------------------------------------------------------------------------------------------------
Image
Image [44] (18)
AWOLNATION
I Am
[46-8-5-3-2-4-3-3-1-3-5-8-14-21-27-33-37-44]
---------------------------------------------------------------------------------------------------------
Image
Image [45] (20)
The Weeknd
Can't Feel My Face
[17-14-9-5-4-6-5-2-1-1-3-5-8-13-17-18-25-30-34-45]
---------------------------------------------------------------------------------------------------------
Image
Image [46] (19)
Janet Jackson
No Sleeep
[5-1-1-1-2-3-5-4-9-10-13-14-19-23-26-30-36-39-46]
---------------------------------------------------------------------------------------------------------
Image
Image [47] (12)
Mary Lambert
She Keeps Me Warm
[34-16-12-9-11-18-21-20-31-39-42-47]
---------------------------------------------------------------------------------------------------------
Image
Image [48] (13)
Marina & The Diamonds
Blue
[40-39-36-29-28-28-26-30-35-38-42-45-48]
---------------------------------------------------------------------------------------------------------
Image
Image [49] (20)
Beck
Dreams
[27-17-13-11-8-8-9-12-13-15-18-22-27-33-39-44-48-48-49-49]
---------------------------------------------------------------------------------------------------------
Image
Image [50] (19)
Foals
What Went Down
[43-37-35-33-29-28-25-30-25-23-17-15-16-20-28-34-40-46-50]
---------------------------------------------------------------------------------------------------------
OUT
---------------------------------------------------------------------------------------------------------
[43] (20)
The Weeknd
The Hills
[33-28-27-27-26-23-23-23-26-27-31-30-21-20-21-25-31-35-37-43]
---------------------------------------------------------------------------------------------------------
[44] (04)
LP
Muddy Waters
[36-39-41-44]
---------------------------------------------------------------------------------------------------------
[47] (07)
Matt Nathanson
Show Me Your Fangs
[43-42-41-49-42-45-47]
---------------------------------------------------------------------------------------------------------
[48] (04)
A Great Big World
Hold Each Other (Featuring FUTURISTIC)
[47-41-46-48]
---------------------------------------------------------------------------------------------------------
User avatar
LittleArsonist
Personal Assistant
 
Posts: 939
Joined: Wed Jan 14, 2004

Postby navi » Tue Nov 03, 2015 1:50 pm

Image [01] (01)
Adele
Hello
Pretty much boring :( :oops:
(just my opinion,
generally, i don't like those larger than life type of ballads)
My year(s) in lists by Ivan (2008 - 2013)
User avatar
navi
Legend
 
Posts: 10122
Joined: Wed Aug 14, 2013
Location: Zagreb/Croatia

Postby LittleArsonist » Thu Nov 05, 2015 1:32 pm

cover
[TW] (WI)
artist
track title
[chartrun]
---------------------------------------------------------------------------------------------------------
50:NGS (45/52) - week ending November 8
---------------------------------------------------------------------------------------------------------

---------------------------------------------------------------------------------------------------------
Image
Image [01] (01)
Sia
Bird Set Free

[1]
---------------------------------------------------------------------------------------------------------
Image
Image [02] (02)
Adele
Hello
[1-2]
---------------------------------------------------------------------------------------------------------
Image
Image [03] (04)
Jamie Lawson
Wasn't Expecting That
[43-8-2-3]
---------------------------------------------------------------------------------------------------------
Image
Image [04] (04)
The 1975
Love Me
[3-2-4-4]
---------------------------------------------------------------------------------------------------------
Image
Image [05] (04)
Bloc Party
The Love Within
[1-1-3-5]
---------------------------------------------------------------------------------------------------------
Image
Image [06] (04)
Ellie Goulding
Something In The Way You Move
[47-19-10-6]
---------------------------------------------------------------------------------------------------------
Image
Image [07] (05)
Editors
Life Is A Fear
[7-2-3-5-7]
---------------------------------------------------------------------------------------------------------
Image
Image [08] (07)
Sia
Alive
[1-1-2-6-4-7-8]
---------------------------------------------------------------------------------------------------------
Image
Image [09] (07)
Sara Bareilles
She Used To Be Mine
[4-3-4-8-9-6-9]
---------------------------------------------------------------------------------------------------------
Image
Image [10] (08)
James Morrison
Demons
[17-9-4-3-5-7-11-10]
---------------------------------------------------------------------------------------------------------
Image
Image [11] (06)
Sam Smith
Writing's On The Wall
[30-20-17-13-12-11]
---------------------------------------------------------------------------------------------------------
Image
Image [12] (08)
Paloma Faith
The Crazy Ones
[2-2-2-1-4-6-8-12]
---------------------------------------------------------------------------------------------------------
Image
Image [13] (10)
Lana Del Rey
Terrence Loves You
[46-46-44-39-37-34-32-22-16-14-13]
---------------------------------------------------------------------------------------------------------
Image
Image [14] (05)
The Weeknd
Often
[8-9-5-9-14]
---------------------------------------------------------------------------------------------------------
Image
Image [15] (07)
Lady Gaga
Til It Happens To You
[28-24-15-14-11-16-15]
---------------------------------------------------------------------------------------------------------
Image
Image [16] (14)
Major Lazer
Powerful (Featuring Ellie Goulding & Tarrus Riley)
[49-44-38-33-26-25-23-22-14-5-7-10-13-16]
---------------------------------------------------------------------------------------------------------
Image
Image [17] (02)
Ellie Goulding
Lost And Found
[20-17]
---------------------------------------------------------------------------------------------------------
Image
Image [18] (10)
Imagine Dragons
Roots
[39-35-32-31-29-28-19-17-18-18]
---------------------------------------------------------------------------------------------------------
Image
Image [19] (14)
Foals
Mountain At My Gates
[20-17-7-4-1-1-1-3-5-6-10-12-15-19]
---------------------------------------------------------------------------------------------------------
Image
Image [20] (02)
Elle King
Ex's & Oh's
[21-20]
---------------------------------------------------------------------------------------------------------
Image
Image [21] (13)
Birdy & RHODES
Let It All Go
[46-32-16-12-7-5-7-9-9-12-14-17-21]
---------------------------------------------------------------------------------------------------------
Image
Image [22] (02)
Hozier
Jackie And Wilson
[25-22]
---------------------------------------------------------------------------------------------------------
Image
Image [23] (01)
Ellie Goulding
Army

[23]
---------------------------------------------------------------------------------------------------------
Image
Image [24] (10)
Florence + The Machine
Queen Of Peace
[29-19-12-10-7-14-18-22-22-24]
---------------------------------------------------------------------------------------------------------
Image
Image [25] (10)
Janet Jackson
Unbreakable
[31-30-28-24-16-13-13-15-19-25]
---------------------------------------------------------------------------------------------------------
Image
Image [26] (09)
The View
Marriage
[46-43-43-43-40-38-38-29-26]
---------------------------------------------------------------------------------------------------------
Image
Image [27] (12)
Alessia Cara
Here
[50-40-24-10-7-8-8-12-16-21-28-27]
---------------------------------------------------------------------------------------------------------
Image
Image [28] (14)
Mumford & Sons
Ditmas
[11-9-10-9-10-16-14-15-11-11-11-18-24-28]
---------------------------------------------------------------------------------------------------------
Image
Image [29] (14)
The Maccabees
Marks To Prove It
[46-40-23-19-15-12-10-13-15-18-21-23-23-29]
---------------------------------------------------------------------------------------------------------
Image
Image [30] (15)
Florence + The Machine
Delilah
[26-26-23-24-22-26-35-39-44-47-42-45 // 31-32-30]
---------------------------------------------------------------------------------------------------------
Image
Image [31] (01)
Miike Snow
Heart Is Full

[31]
---------------------------------------------------------------------------------------------------------
Image
Image [32] (08)
Ellie Goulding
On My Mind
[50-40-32-26-25-24-26-32]
---------------------------------------------------------------------------------------------------------
Image
Image [33] (09)
Kodaline
Love Will Set You Free
[13-15-12-10-16-20-25-31-33]
---------------------------------------------------------------------------------------------------------
Image
Image [34] (17)
Mark Ronson
I Can't Lose (featuring Keyone Starr)
[36-30-27-24-21-18-14-8-9-11-19-25-24-27-28-27-34]
---------------------------------------------------------------------------------------------------------
Image
Image [35] (06)
Janet Jackson
BURNITUP! (Featuring Missy Elliott)
[17-21-24-26-30-35]
---------------------------------------------------------------------------------------------------------
Image
Image [36] (04)
Imagine Dragons
I Was Me
[44-41-37-36]
---------------------------------------------------------------------------------------------------------
Image
Image [37] (03)
Drake
Hotline Bling
[50-40-37]
---------------------------------------------------------------------------------------------------------
Image
Image [38] (10)
Macklemore & Ryan Lewis
Downtown (Featuring Eric Nally, Melle Mel, Kool Moe Dee & Grandmaster Caz)
[50-33-20-18-19-17-23-27-34-38]
---------------------------------------------------------------------------------------------------------
Image
Image [39] (01)
Greg Laswell
Dodged A Bullet

[39]
---------------------------------------------------------------------------------------------------------
Image
Image [40] (11)
The Common Linnets
We Don't Make The Wind Blow
[49-41-39-37-34-27-37-35-33-36-40]
---------------------------------------------------------------------------------------------------------
Image
Image [41] (09)
Halsey
New Americana
[38-34-29-22-23-29-30-38-41]
---------------------------------------------------------------------------------------------------------
Image
Image [42] (19)
Rachel Platten
Fight Song
[7-2-2-4-7-10-11-11-7-6-2-4-5-6-10-15-20-33-42]
---------------------------------------------------------------------------------------------------------
Image
Image [43] (17)
The Vaccines
Dream Lover
[26-17-12-9-7-5-6-7-3-3-6-12-19-28-29-35-43]
---------------------------------------------------------------------------------------------------------
Image
Image [44] (01)
Guy Garvey
Angela's Eyes

[44]
---------------------------------------------------------------------------------------------------------
Image
Image [45] (01)
Sam Smith
Drowning Shadows

[45]
---------------------------------------------------------------------------------------------------------
Image
Image [46] (17)
U2
Song for Someone
[3-1-1-1-2-4-5-4-6-9-11-13-22-26-32-39-46]
---------------------------------------------------------------------------------------------------------
Image
Image [47] (19)
AWOLNATION
I Am
[46-8-5-3-2-4-3-3-1-3-5-8-14-21-27-33-37-44-47]
---------------------------------------------------------------------------------------------------------
Image
Image [48] (13)
Lana Del Rey
High By The Beach
[50-35-20-20-23-24-27-33-36-34-40-43-48]
---------------------------------------------------------------------------------------------------------
Image
Image [49] (20)
Janet Jackson
No Sleeep
[5-1-1-1-2-3-5-4-9-10-13-14-19-23-26-30-36-39-46-49]
---------------------------------------------------------------------------------------------------------
Image
Image [50] (20)
Editors
Marching Orders
[18-18-17-16-9-8-8-5-2-2-2-4-6-16-23-29-31-36-41-50]
---------------------------------------------------------------------------------------------------------
OUT
---------------------------------------------------------------------------------------------------------
[42] (15)
Leona Lewis
I Am
[27-19-14-12-13-13-19-22-25-32-38-33-32-35-42]
---------------------------------------------------------------------------------------------------------
[45] (20)
The Weeknd
Can't Feel My Face
[17-14-9-5-4-6-5-2-1-1-3-5-8-13-17-18-25-30-34-45]
--------------------------------------------------------------------------------------------------------
[47] (12)
Mary Lambert
She Keeps Me Warm
[34-16-12-9-11-18-21-20-31-39-42-47]
---------------------------------------------------------------------------------------------------------
[48] (13)
Marina & The Diamonds
Blue
[40-39-36-29-28-28-26-30-35-38-42-45-48]
---------------------------------------------------------------------------------------------------------
[49] (20)
Beck
Dreams
[27-17-13-11-8-8-9-12-13-15-18-22-27-33-39-44-48-48-49-49]
---------------------------------------------------------------------------------------------------------
[50] (19)
Foals
What Went Down
[43-37-35-33-29-28-25-30-25-23-17-15-16-20-28-34-40-46-50]
---------------------------------------------------------------------------------------------------------
User avatar
LittleArsonist
Personal Assistant
 
Posts: 939
Joined: Wed Jan 14, 2004

Postby NothingFails » Mon Nov 09, 2015 3:29 am

wow, we've never really chatted before on here, but seeing your chart, our tastes are quite a bit synced

love all of these

Adele Hello
Jamie Lawson Wasn't Expecting That
The 1975 Love Me
Bloc Party The Love Within
Editors Life Is A Fear
James Morrison Demons
Lana Del Rey Terrence Loves You
Foals Mountain At My Gates
Hozier Jackie And Wilson
Florence + The Machine Queen Of Peace
Janet Jackson Unbreakable
Mumford & Sons Ditmas
The Maccabees Marks To Prove It
Florence + The Machine Delilah
Mark Ronson I Can't Lose (featuring Keyone Starr)
Janet Jackson BURNITUP! (Featuring Missy Elliott)
The Common Linnets We Don't Make The Wind Blow
The Vaccines Dream Lover
U2 Song for Someone
Lana Del Rey High By The Beach
Janet No Sleeep
Marina & The Diamonds Blue
Beck Dreams
NothingFails
Legend
 
Posts: 44411
Joined: Fri Jan 09, 2004

Postby LittleArsonist » Thu Nov 12, 2015 2:26 pm

NothingFails wrote:wow, we've never really chatted before on here, but seeing your chart, our tastes are quite a bit synced

love all of these

Adele Hello
Jamie Lawson Wasn't Expecting That
The 1975 Love Me
Bloc Party The Love Within
Editors Life Is A Fear
James Morrison Demons
Lana Del Rey Terrence Loves You
Foals Mountain At My Gates
Hozier Jackie And Wilson
Florence + The Machine Queen Of Peace
Janet Jackson Unbreakable
Mumford & Sons Ditmas
The Maccabees Marks To Prove It
Florence + The Machine Delilah
Mark Ronson I Can't Lose (featuring Keyone Starr)
Janet Jackson BURNITUP! (Featuring Missy Elliott)
The Common Linnets We Don't Make The Wind Blow
The Vaccines Dream Lover
U2 Song for Someone
Lana Del Rey High By The Beach
Janet No Sleeep
Marina & The Diamonds Blue
Beck Dreams
:D nice to meet you! :)
User avatar
LittleArsonist
Personal Assistant
 
Posts: 939
Joined: Wed Jan 14, 2004

Postby navi » Fri Nov 13, 2015 11:22 am

Image [39] (01) Greg Laswell - Dodged A Bullet
Not heard this one before, like it,
disappointed by Miike Snow one
My year(s) in lists by Ivan (2008 - 2013)
User avatar
navi
Legend
 
Posts: 10122
Joined: Wed Aug 14, 2013
Location: Zagreb/Croatia

Postby LittleArsonist » Fri Nov 13, 2015 12:02 pm

navi wrote:
Image [39] (01) Greg Laswell - Dodged A Bullet
Not heard this one before, like it,
disappointed by Miike Snow one
Miike Snow debut album was way better than the sophomore one...and I believe the third one will be worse than the previous 2...the track is quite catchy but not comparable to who they used to be before
User avatar
LittleArsonist
Personal Assistant
 
Posts: 939
Joined: Wed Jan 14, 2004

Postby navi » Fri Nov 13, 2015 12:10 pm

LittleArsonist wrote:
navi wrote:
Image [39] (01) Greg Laswell - Dodged A Bullet
Not heard this one before, like it,
disappointed by Miike Snow one
Miike Snow debut album was way better than the sophomore one...and I believe the third one will be worse than the previous 2...the track is quite catchy but not comparable to who they used to be before
Judging by this track, they completely change the music style, becoming funky/dance oriented
My year(s) in lists by Ivan (2008 - 2013)
User avatar
navi
Legend
 
Posts: 10122
Joined: Wed Aug 14, 2013
Location: Zagreb/Croatia

Postby LittleArsonist » Fri Nov 13, 2015 12:36 pm

cover
[TW] (WI)
artist
track title
[chartrun]
---------------------------------------------------------------------------------------------------------
50:NGS (46/52) - week ending November 15
---------------------------------------------------------------------------------------------------------

---------------------------------------------------------------------------------------------------------
Image
Image [01] (02)
Sia
Bird Set Free
[1-1]
---------------------------------------------------------------------------------------------------------
Image
Image [02] (03)
Adele
Hello
[1-2-2]
---------------------------------------------------------------------------------------------------------
Image
Image [03] (02)
Ellie Goulding
Army
[23-3]
---------------------------------------------------------------------------------------------------------
Image
Image [04] (05)
The 1975
Love Me
[3-2-4-4-4]
---------------------------------------------------------------------------------------------------------
Image
Image [05] (05)
Bloc Party
The Love Within
[1-1-3-5-5]
---------------------------------------------------------------------------------------------------------
Image
Image [06] (05)
Jamie Lawson
Wasn't Expecting That
[43-8-2-3-6]
---------------------------------------------------------------------------------------------------------
Image
Image [07] (08)
Sara Bareilles
She Used To Be Mine
[4-3-4-8-9-6-9-7]
---------------------------------------------------------------------------------------------------------
Image
Image [08] (08)
Sia
Alive
[1-1-2-6-4-7-8-8]
---------------------------------------------------------------------------------------------------------
Image
Image [09] (05)
Ellie Goulding
Something In The Way You Move
[47-19-10-6-9]
---------------------------------------------------------------------------------------------------------
Image
Image [10] (11)
Lana Del Rey
Terrence Loves You
[46-46-44-39-37-34-32-22-16-14-13-10]
---------------------------------------------------------------------------------------------------------
Image
Image [11] (06)
Editors
Life Is A Fear
[7-2-3-5-7-11]
---------------------------------------------------------------------------------------------------------
Image
Image [12] (09)
Paloma Faith
The Crazy Ones
[2-2-2-1-4-6-8-12-12]
---------------------------------------------------------------------------------------------------------
Image
Image [13] (03)
Ellie Goulding
Lost And Found
[20-17-13]
---------------------------------------------------------------------------------------------------------
Image
Image [14] (09)
James Morrison
Demons
[17-9-4-3-5-7-11-10-14]
---------------------------------------------------------------------------------------------------------
Image
Image [15] (07)
Sam Smith
Writing's On The Wall
[30-20-17-13-12-11-15]
---------------------------------------------------------------------------------------------------------
Image
Image [16] (08)
Lady Gaga
Til It Happens To You
[28-24-15-14-11-16-15-16]
---------------------------------------------------------------------------------------------------------
Image
Image [17] (11)
Imagine Dragons
Roots
[39-35-32-31-29-28-19-17-18-18-17]
---------------------------------------------------------------------------------------------------------
Image
Image [18] (15)
Major Lazer
Powerful (Featuring Ellie Goulding & Tarrus Riley)
[49-44-38-33-26-25-23-22-14-5-7-10-13-16-18]
---------------------------------------------------------------------------------------------------------
Image
Image [19] (03)
Elle King
Ex's & Oh's
[21-20-19]
---------------------------------------------------------------------------------------------------------
Image
Image [20] (01)
Coldplay
Adventure Of A Lifetime

[20]
---------------------------------------------------------------------------------------------------------
Image
Image [21] (03)
Hozier
Jackie And Wilson
[25-22-21]
---------------------------------------------------------------------------------------------------------
Image
Image [22] (06)
The Weeknd
Often
[8-9-5-9-14-22]
---------------------------------------------------------------------------------------------------------
Image
Image [23] (15)
Foals
Mountain At My Gates
[20-17-7-4-1-1-1-3-5-6-10-12-15-19-23]
---------------------------------------------------------------------------------------------------------
Image
Image [24] (14)
Birdy & RHODES
Let It All Go
[46-32-16-12-7-5-7-9-9-12-14-17-21-24]
---------------------------------------------------------------------------------------------------------
Image
Image [25] (13)
Alessia Cara
Here
[50-40-24-10-7-8-8-12-16-21-28-27-25]
---------------------------------------------------------------------------------------------------------
Image
Image [26] (11)
Florence + The Machine
Queen Of Peace
[29-19-12-10-7-14-18-22-22-24-26]
---------------------------------------------------------------------------------------------------------
Image
Image [27] (02)
Miike Snow
Heart Is Full
[31-27]
---------------------------------------------------------------------------------------------------------
Image
Image [28] (01)
Banks
Better

[28]
---------------------------------------------------------------------------------------------------------
Image
Image [29] (11)
Janet Jackson
Unbreakable
[31-30-28-24-16-13-13-15-19-25-29]
---------------------------------------------------------------------------------------------------------
Image
Image [30] (16)
Florence + The Machine
Delilah
[26-26-23-24-22-26-35-39-44-47-42-45 // 31-32-30-30]
---------------------------------------------------------------------------------------------------------
Image
Image [31] (15)
The Maccabees
Marks To Prove It
[46-40-23-19-15-12-10-13-15-18-21-23-23-29-31]
---------------------------------------------------------------------------------------------------------
Image
Image [32] (10)
The View
Marriage
[46-43-43-43-40-38-38-29-26-32]
---------------------------------------------------------------------------------------------------------
Image
Image [33] (15)
Mumford & Sons
Ditmas
[11-9-10-9-10-16-14-15-11-11-11-18-24-28-33]
---------------------------------------------------------------------------------------------------------
Image
Image [34] (05)
Imagine Dragons
I Was Me
[44-41-37-36-34]
---------------------------------------------------------------------------------------------------------
Image
Image [35] (04)
Drake
Hotline Bling
[50-40-37-35]
---------------------------------------------------------------------------------------------------------
Image
Image [36] (10)
Kodaline
Love Will Set You Free
[13-15-12-10-16-20-25-31-33-36]
---------------------------------------------------------------------------------------------------------
Image
Image [37] (09)
Ellie Goulding
On My Mind
[50-40-32-26-25-24-26-32-37]
---------------------------------------------------------------------------------------------------------
Image
Image [38] (07)
Janet Jackson
BURNITUP! (Featuring Missy Elliott)
[17-21-24-26-30-35-38]
---------------------------------------------------------------------------------------------------------
Image
Image [39] (02)
Greg Laswell
Dodged A Bullet
[39-39]
---------------------------------------------------------------------------------------------------------
Image
Image [40] (01)
Santigold
Can't Get Enough Of Myself (Featuring B.C.)

[40]
---------------------------------------------------------------------------------------------------------
Image
Image [41] (11)
Macklemore & Ryan Lewis
Downtown (Featuring Eric Nally, Melle Mel, Kool Moe Dee & Grandmaster Caz)
[50-33-20-18-19-17-23-27-34-38-41]
---------------------------------------------------------------------------------------------------------
Image
Image [42] (02)
Sam Smith
Drowning Shadows
[45-42]
---------------------------------------------------------------------------------------------------------
Image
Image [43] (02)
Guy Garvey
Angela's Eyes
[44-43]
---------------------------------------------------------------------------------------------------------
Image
Image [44] (18)
Mark Ronson
I Can't Lose (featuring Keyone Starr)
[36-30-27-24-21-18-14-8-9-11-19-25-24-27-28-27-34-44]
---------------------------------------------------------------------------------------------------------
Image
Image [45] (18)
The Vaccines
Dream Lover
[26-17-12-9-7-5-6-7-3-3-6-12-19-28-29-35-43-45]
---------------------------------------------------------------------------------------------------------
Image
Image [46] (14)
Lana Del Rey
High By The Beach
[50-35-20-20-23-24-27-33-36-34-40-43-48-46]
---------------------------------------------------------------------------------------------------------
Image
Image [47] (12)
The Common Linnets
We Don't Make The Wind Blow
[49-41-39-37-34-27-37-35-33-36-40-47]
---------------------------------------------------------------------------------------------------------
Image
Image [48] (20)
Rachel Platten
Fight Song
[7-2-2-4-7-10-11-11-7-6-2-4-5-6-10-15-20-33-42-48]
---------------------------------------------------------------------------------------------------------
Image
Image [49] (20)
AWOLNATION
I Am
[46-8-5-3-2-4-3-3-1-3-5-8-14-21-27-33-37-44-47-49]
---------------------------------------------------------------------------------------------------------
Image
Image [50] (10)
Halsey
New Americana
[38-34-29-22-23-29-30-38-41-50]
---------------------------------------------------------------------------------------------------------
OUT
---------------------------------------------------------------------------------------------------------
[46] (17)
U2
Song for Someone
[3-1-1-1-2-4-5-4-6-9-11-13-22-26-32-39-46]
---------------------------------------------------------------------------------------------------------
[49] (20)
Janet Jackson
No Sleeep
[5-1-1-1-2-3-5-4-9-10-13-14-19-23-26-30-36-39-46-49]
---------------------------------------------------------------------------------------------------------
[50] (20)
Editors
Marching Orders
[18-18-17-16-9-8-8-5-2-2-2-4-6-16-23-29-31-36-41-50]
---------------------------------------------------------------------------------------------------------
User avatar
LittleArsonist
Personal Assistant
 
Posts: 939
Joined: Wed Jan 14, 2004

Postby Tansike » Tue Nov 17, 2015 5:58 pm

Haven't heard your #1 yet but i'll check it out soon (i'll buy her album anyway so i'll hear it for sure :) )

Glad Adele's so successful with her new single on your charts as well. "Hello" is such a great comeback hit and i'm glad she's smashing everywhere.
Also loving the success for Ellie. I just finished listening to "Army", so it's cool to see that one at #3. There are some other songs that are better on the album, but it's a good pick as the 2nd official single.
"Something In The Way You Move" grew on me a lot since the album came out, it should have been a proper single actually (2nd or lead instead of "On My Mind"). Same for "Lost And Found"... she released most good tracks as promo singles :oops:

Nice debut for Coldplay :)
User avatar
Tansike
Legend
 
Posts: 44330
Joined: Sat Jan 28, 2012
Location: Switzerland

Postby LittleArsonist » Fri Nov 20, 2015 12:33 pm

cover
[TW] (WI)
artist
track title
[chartrun]
---------------------------------------------------------------------------------------------------------
50:NGS (47/52) - week ending November 22
---------------------------------------------------------------------------------------------------------

---------------------------------------------------------------------------------------------------------
Image
Image [01] (03)
Ellie Goulding
Army
[23-3-1]
---------------------------------------------------------------------------------------------------------
Image
Image [02] (04)
Adele
Hello
[1-2-2-2]
---------------------------------------------------------------------------------------------------------
Image
Image [03] (03)
Sia
Bird Set Free
[1-1-3]
---------------------------------------------------------------------------------------------------------
Image
Image [04] (02)
Coldplay
Adventure Of A Lifetime
[20-4]
---------------------------------------------------------------------------------------------------------
Image
Image [05] (06)
Bloc Party
The Love Within
[1-1-3-5-5-5]
---------------------------------------------------------------------------------------------------------
Image
Image [06] (06)
The 1975
Love Me
[3-2-4-4-4-6]
---------------------------------------------------------------------------------------------------------
Image
Image [07] (12)
Lana Del Rey
Terrence Loves You
[46-46-44-39-37-34-32-22-16-14-13-10-7]
---------------------------------------------------------------------------------------------------------
Image
Image [08] (09)
Sara Bareilles
She Used To Be Mine
[4-3-4-8-9-6-9-7-8]
---------------------------------------------------------------------------------------------------------
Image
Image [09] (06)
Jamie Lawson
Wasn't Expecting That
[43-8-2-3-6-9]
---------------------------------------------------------------------------------------------------------
Image
Image [10] (01)
Adele
When We Were Young

[10]
---------------------------------------------------------------------------------------------------------
Image
Image [11] (04)
Ellie Goulding
Lost And Found
[20-17-13-11]
---------------------------------------------------------------------------------------------------------
Image
Image [12] (01)
Rachel Platten
Stand By You

[12]
---------------------------------------------------------------------------------------------------------
Image
Image [13] (09)
Sia
Alive
[1-1-2-6-4-7-8-8-13]
---------------------------------------------------------------------------------------------------------
Image
Image [14] (10)
Paloma Faith
The Crazy Ones
[2-2-2-1-4-6-8-12-12-14]
---------------------------------------------------------------------------------------------------------
Image
Image [15] (07)
Editors
Life Is A Fear
[7-2-3-5-7-11-15]
---------------------------------------------------------------------------------------------------------
Image
Image [16] (10)
James Morrison
Demons
[17-9-4-3-5-7-11-10-14-16]
---------------------------------------------------------------------------------------------------------
Image
Image [17] (06)
Ellie Goulding
Something In The Way You Move
[47-19-10-6-9-17]
---------------------------------------------------------------------------------------------------------
Image
Image [18] (08)
Sam Smith
Writing's On The Wall
[30-20-17-13-12-11-15-18]
---------------------------------------------------------------------------------------------------------
Image
Image [19] (09)
Lady Gaga
Til It Happens To You
[28-24-15-14-11-16-15-16-19]
---------------------------------------------------------------------------------------------------------
Image
Image [20] (12)
Imagine Dragons
Roots
[39-35-32-31-29-28-19-17-18-18-17-20]
---------------------------------------------------------------------------------------------------------
Image
Image [21] (04)
Hozier
Jackie And Wilson
[25-22-21-21]
---------------------------------------------------------------------------------------------------------
Image
Image [22] (04)
Elle King
Ex's & Oh's
[21-20-19-22]
---------------------------------------------------------------------------------------------------------
Image
Image [23] (01)
James Bay
If You Ever Want To Be In Love

[23]
---------------------------------------------------------------------------------------------------------
Image
Image [24] (02)
Banks
Better
[28-24]
---------------------------------------------------------------------------------------------------------
Image
Image [25] (03)
Miike Snow
Heart Is Full
[31-27-25]
---------------------------------------------------------------------------------------------------------
Image
Image [26] (16)
Foals
Mountain At My Gates
[20-17-7-4-1-1-1-3-5-6-10-12-15-19-23-26]
---------------------------------------------------------------------------------------------------------
Image
Image [27] (16)
Major Lazer
Powerful (Featuring Ellie Goulding & Tarrus Riley)
[49-44-38-33-26-25-23-22-14-5-7-10-13-16-18-27]
---------------------------------------------------------------------------------------------------------
Image
Image [28] (14)
Alessia Cara
Here
[50-40-24-10-7-8-8-12-16-21-28-27-25-28]
---------------------------------------------------------------------------------------------------------
Image
Image [29] (15)
Birdy & RHODES
Let It All Go
[46-32-16-12-7-5-7-9-9-12-14-17-21-24-29]
---------------------------------------------------------------------------------------------------------
Image
Image [30] (07)
The Weeknd
Often
[8-9-5-9-14-22-30]
---------------------------------------------------------------------------------------------------------
Image
Image [31] (06)
Imagine Dragons
I Was Me
[44-41-37-36-34-31]
---------------------------------------------------------------------------------------------------------
Image
Image [32] (12)
Florence + The Machine
Queen Of Peace
[29-19-12-10-7-14-18-22-22-24-26-32]
---------------------------------------------------------------------------------------------------------
Image
Image [33] (12)
Janet Jackson
Unbreakable
[31-30-28-24-16-13-13-15-19-25-29-33]
---------------------------------------------------------------------------------------------------------
Image
Image [34] (01)
Kelly Clarkson
Piece By Piece

[34]
---------------------------------------------------------------------------------------------------------
Image
Image [35] (17)
Florence + The Machine
Delilah
[26-26-23-24-22-26-35-39-44-47-42-45 // 31-32-30-30-35]
---------------------------------------------------------------------------------------------------------
Image
Image [36] (03)
Greg Laswell
Dodged A Bullet
[39-39-36]
---------------------------------------------------------------------------------------------------------
Image
Image [37] (16)
The Maccabees
Marks To Prove It
[46-40-23-19-15-12-10-13-15-18-21-23-23-29-31-37]
---------------------------------------------------------------------------------------------------------
Image
Image [38] (05)
Drake
Hotline Bling
[50-40-37-35-38]
---------------------------------------------------------------------------------------------------------
Image
Image [39] (11)
The View
Marriage
[46-43-43-43-40-38-38-29-26-32-39]
---------------------------------------------------------------------------------------------------------
Image
Image [40] (02)
Santigold
Can't Get Enough Of Myself (Featuring B.C.)
[40-40]
---------------------------------------------------------------------------------------------------------
Image
Image [41] (11)
Kodaline
Love Will Set You Free
[13-15-12-10-16-20-25-31-33-36-41]
---------------------------------------------------------------------------------------------------------
Image
Image [42] (03)
Sam Smith
Drowning Shadows
[45-42-42]
---------------------------------------------------------------------------------------------------------
Image
Image [43] (10)
Ellie Goulding
On My Mind
[50-40-32-26-25-24-26-32-37-43]
---------------------------------------------------------------------------------------------------------
Image
Image [44] (16)
Mumford & Sons
Ditmas
[11-9-10-9-10-16-14-15-11-11-11-18-24-28-33-44]
---------------------------------------------------------------------------------------------------------
Image
Image [45] (03)
Guy Garvey
Angela's Eyes
[44-43-45]
---------------------------------------------------------------------------------------------------------
Image
Image [46] (08)
Janet Jackson
BURNITUP! (Featuring Missy Elliott)
[17-21-24-26-30-35-38-46]
---------------------------------------------------------------------------------------------------------
Image
Image [47] (01)
Simply Red
Love Gave Me More

[47]
---------------------------------------------------------------------------------------------------------
Image
Image [48] (15)
Lana Del Rey
High By The Beach
[50-35-20-20-23-24-27-33-36-34-40-43-48-46-48]
---------------------------------------------------------------------------------------------------------
Image
Image [49] (12)
Macklemore & Ryan Lewis
Downtown (Featuring Eric Nally, Melle Mel, Kool Moe Dee & Grandmaster Caz)
[50-33-20-18-19-17-23-27-34-38-41-49]
---------------------------------------------------------------------------------------------------------
Image
Image [50] (19)
Mark Ronson
I Can't Lose (featuring Keyone Starr)
[36-30-27-24-21-18-14-8-9-11-19-25-24-27-28-27-34-44-50]
---------------------------------------------------------------------------------------------------------
OUT
---------------------------------------------------------------------------------------------------------
[45] (18)
The Vaccines
Dream Lover
[26-17-12-9-7-5-6-7-3-3-6-12-19-28-29-35-43-45]
---------------------------------------------------------------------------------------------------------
[47] (12)
The Common Linnets
We Don't Make The Wind Blow
[49-41-39-37-34-27-37-35-33-36-40-47]
---------------------------------------------------------------------------------------------------------
[48] (20)
Rachel Platten
Fight Song
[7-2-2-4-7-10-11-11-7-6-2-4-5-6-10-15-20-33-42-48]
---------------------------------------------------------------------------------------------------------
[49] (20)
AWOLNATION
I Am
[46-8-5-3-2-4-3-3-1-3-5-8-14-21-27-33-37-44-47-49]
---------------------------------------------------------------------------------------------------------
[50] (10)
Halsey
New Americana
[38-34-29-22-23-29-30-38-41-50]
---------------------------------------------------------------------------------------------------------
Last edited by LittleArsonist on Fri Nov 20, 2015 12:38 pm, edited 1 time in total.
User avatar
LittleArsonist
Personal Assistant
 
Posts: 939
Joined: Wed Jan 14, 2004

Postby LittleArsonist » Fri Nov 20, 2015 12:36 pm

Tansike wrote:Haven't heard your #1 yet but i'll check it out soon (i'll buy her album anyway so i'll hear it for sure :) )
much much better than "Alive" imo.

Glad Adele's so successful with her new single on your charts as well. "Hello" is such a great comeback hit and i'm glad she's smashing everywhere.
I'm about to listen to 25 right now :o

Also loving the success for Ellie. I just finished listening to "Army", so it's cool to see that one at #3. There are some other songs that are better on the album, but it's a good pick as the 2nd official single.
"Something In The Way You Move" grew on me a lot since the album came out, it should have been a proper single actually (2nd or lead instead of "On My Mind"). Same for "Lost And Found"... she released most good tracks as promo singles :oops:
weird stuff record labels do sometimes... all singles (promo or not) that came out Delirium was one better than the previous (it should have been the opposite, shouldn't it?)...which makes On My Mind imo the weakest track of that group of songs. Army without any doubt the best slow track as well as Lost and Found the best uptempo track compared to the others...

Nice debut for Coldplay :)
at first listening I was like :-? now I'm :D
User avatar
LittleArsonist
Personal Assistant
 
Posts: 939
Joined: Wed Jan 14, 2004

Postby Tansike » Wed Nov 25, 2015 1:32 pm

^ Glad we agree on the (promo) singles of "Delirium" so far. "On My Mind" was easily the weakest... it's still nice, but the others are clearly better. I'm afraid they will pick the wrong ones (= the generic ones) in the future and the album will be an underperformance...

Talking about Ellie... great #1! I'm not sure how this will do for her, as it doesn't look to well right now. But it's definitely one of the better songs on the album and i hope they shoot a great video for it :)

Great debut for Adele's next single. Definitely another smash for her. Also good debut for Rachel's next single, even if there were two songs on the "Fight Song" EP that were so, so much better ("Congratulations" and "Lone Ranger").

Nice debut for Kelly's "Piece By Piece" too. Is it for the album version or the single version? I prefer the album version, even if the single version is nice too.
User avatar
Tansike
Legend
 
Posts: 44330
Joined: Sat Jan 28, 2012
Location: Switzerland

Postby navi » Thu Nov 26, 2015 12:17 pm

My pick of this weeks new entries is
James Bay - If You Ever Want To Be In Love
(others are just not my thing) :wink:
My year(s) in lists by Ivan (2008 - 2013)
User avatar
navi
Legend
 
Posts: 10122
Joined: Wed Aug 14, 2013
Location: Zagreb/Croatia

Postby LittleArsonist » Fri Nov 27, 2015 10:34 am

cover
[TW] (WI)
artist
track title
[chartrun]
---------------------------------------------------------------------------------------------------------
50:NGS (48/52) - week ending November 29
---------------------------------------------------------------------------------------------------------

---------------------------------------------------------------------------------------------------------
Image
Image [01] (05)
Adele
Hello
[1-2-2-2-1]
---------------------------------------------------------------------------------------------------------
Image
Image [02] (04)
Ellie Goulding
Army
[23-3-1-2]
---------------------------------------------------------------------------------------------------------
Image
Image [03] (04)
Sia
Bird Set Free
[1-1-3-3]
---------------------------------------------------------------------------------------------------------
Image
Image [04] (03)
Coldplay
Adventure Of A Lifetime
[20-4-4]
---------------------------------------------------------------------------------------------------------
Image
Image [05] (02)
Adele
When We Were Young
[10-5]
---------------------------------------------------------------------------------------------------------
Image
Image [06] (01)
David Bowie
Blackstar

[6]
---------------------------------------------------------------------------------------------------------
Image
Image [07] (09)
Sam Smith
Writing's On The Wall
[30-20-17-13-12-11-15-18-7]
---------------------------------------------------------------------------------------------------------
Image
Image [08] (02)
Rachel Platten
Stand By You
[12-8]
---------------------------------------------------------------------------------------------------------
Image
Image [09] (07)
Bloc Party
The Love Within
[1-1-3-5-5-5-9]
---------------------------------------------------------------------------------------------------------
Image
Image [10] (10)
Lady Gaga
Til It Happens To You
[28-24-15-14-11-16-15-16-19-10]
---------------------------------------------------------------------------------------------------------
Image
Image [11] (13)
Lana Del Rey
Terrence Loves You
[46-46-44-39-37-34-32-22-16-14-13-10-7-11]
---------------------------------------------------------------------------------------------------------
Image
Image [12] (07)
The 1975
Love Me
[3-2-4-4-4-6-12]
---------------------------------------------------------------------------------------------------------
Image
Image [13] (07)
Jamie Lawson
Wasn't Expecting That
[43-8-2-3-6-9-13]
---------------------------------------------------------------------------------------------------------
Image
Image [14] (05)
Ellie Goulding
Lost And Found
[20-17-13-11-14]
---------------------------------------------------------------------------------------------------------
Image
Image [15] (10)
Sara Bareilles
She Used To Be Mine
[4-3-4-8-9-6-9-7-8-15]
---------------------------------------------------------------------------------------------------------
Image
Image [16] (10)
Sia
Alive
[1-1-2-6-4-7-8-8-13-16]
---------------------------------------------------------------------------------------------------------
Image
Image [17] (02)
James Bay
If You Ever Want To Be In Love
[23-17]
---------------------------------------------------------------------------------------------------------
Image
Image [18] (08)
Editors
Life Is A Fear
[7-2-3-5-7-11-15-18]
---------------------------------------------------------------------------------------------------------
Image
Image [19] (11)
Paloma Faith
The Crazy Ones
[2-2-2-1-4-6-8-12-12-14-19]
---------------------------------------------------------------------------------------------------------
Image
Image [20] (13)
Imagine Dragons
Roots
[39-35-32-31-29-28-19-17-18-18-17-20-20]
---------------------------------------------------------------------------------------------------------
Image
Image [21] (03)
Banks
Better
[28-24-21]
---------------------------------------------------------------------------------------------------------
Image
Image [22] (11)
James Morrison
Demons
[17-9-4-3-5-7-11-10-14-16-22]
---------------------------------------------------------------------------------------------------------
Image
Image [23] (05)
Elle King
Ex's & Oh's
[21-20-19-22-23]
---------------------------------------------------------------------------------------------------------
Image
Image [24] (04)
Miike Snow
Heart Is Full
[31-27-25-24]
---------------------------------------------------------------------------------------------------------
Image
Image [25] (07)
Ellie Goulding
Something In The Way You Move
[47-19-10-6-9-17-25]
---------------------------------------------------------------------------------------------------------
Image
Image [26] (05)
Hozier
Jackie And Wilson
[25-22-21-21-26]
---------------------------------------------------------------------------------------------------------
Image
Image [27] (07)
Imagine Dragons
I Was Me
[44-41-37-36-34-31-27]
---------------------------------------------------------------------------------------------------------
Image
Image [28] (15)
Alessia Cara
Here
[50-40-24-10-7-8-8-12-16-21-28-27-25-28-28]
---------------------------------------------------------------------------------------------------------
Image
Image [29] (16)
Birdy & RHODES
Let It All Go
[46-32-16-12-7-5-7-9-9-12-14-17-21-24-29-29]
---------------------------------------------------------------------------------------------------------
Image
Image [30] (17)
Foals
Mountain At My Gates
[20-17-7-4-1-1-1-3-5-6-10-12-15-19-23-26-30]
---------------------------------------------------------------------------------------------------------
Image
Image [31] (02)
Kelly Clarkson
Piece By Piece
[34-31]
---------------------------------------------------------------------------------------------------------
Image
Image [32] (17)
Major Lazer
Powerful (Featuring Ellie Goulding & Tarrus Riley)
[49-44-38-33-26-25-23-22-14-5-7-10-13-16-18-27-32]
---------------------------------------------------------------------------------------------------------
Image
Image [33] (04)
Greg Laswell
Dodged A Bullet
[39-39-36-33]
---------------------------------------------------------------------------------------------------------
Image
Image [34] (13)
Florence + The Machine
Queen Of Peace
[29-19-12-10-7-14-18-22-22-24-26-32-34]
---------------------------------------------------------------------------------------------------------
Image
Image [35] (08)
The Weeknd
Often
[8-9-5-9-14-22-30-35]
---------------------------------------------------------------------------------------------------------
Image
Image [36] (04)
Sam Smith
Drowning Shadows
[45-42-42-36]
---------------------------------------------------------------------------------------------------------
Image
Image [37] (03)
Santigold
Can't Get Enough Of Myself (Featuring B.C.)
[40-40-37]
---------------------------------------------------------------------------------------------------------
Image
Image [38] (02)
Simply Red
Love Gave Me More
[47-38]
---------------------------------------------------------------------------------------------------------
Image
Image [39] (13)
Janet Jackson
Unbreakable
[31-30-28-24-16-13-13-15-19-25-29-33-39]
---------------------------------------------------------------------------------------------------------
Image
Image [40] (12)
The View
Marriage
[46-43-43-43-40-38-38-29-26-32-39-40]
---------------------------------------------------------------------------------------------------------
Image
Image [41] (06)
Drake
Hotline Bling
[50-40-37-35-38-41]
---------------------------------------------------------------------------------------------------------
Image
Image [42] (01)
Editors
Ocean Of Night

[42]
---------------------------------------------------------------------------------------------------------
Image
Image [43] (04)
Guy Garvey
Angela's Eyes
[44-43-45-43]
---------------------------------------------------------------------------------------------------------
Image
Image [44] (01)
LP
Lost On You

[44]
---------------------------------------------------------------------------------------------------------
Image
Image [45] (18)
Florence + The Machine
Delilah
[26-26-23-24-22-26-35-39-44-47-42-45 // 31-32-30-30-35-45]
---------------------------------------------------------------------------------------------------------
Image
Image [46] (11)
Ellie Goulding
On My Mind
[50-40-32-26-25-24-26-32-37-43-46]
---------------------------------------------------------------------------------------------------------
Image
Image [47] (17)
The Maccabees
Marks To Prove It
[46-40-23-19-15-12-10-13-15-18-21-23-23-29-31-37-47]
---------------------------------------------------------------------------------------------------------
Image
Image [48] (17)
Mumford & Sons
Ditmas
[11-9-10-9-10-16-14-15-11-11-11-18-24-28-33-44-48]
---------------------------------------------------------------------------------------------------------
Image
Image [49] (09)
Janet Jackson
BURNITUP! (Featuring Missy Elliott)
[17-21-24-26-30-35-38-46-49]
---------------------------------------------------------------------------------------------------------
Image
Image [50] (12)
Kodaline
Love Will Set You Free
[13-15-12-10-16-20-25-31-33-36-41-50]
---------------------------------------------------------------------------------------------------------
OUT
---------------------------------------------------------------------------------------------------------
[48] (15)
Lana Del Rey
High By The Beach
[50-35-20-20-23-24-27-33-36-34-40-43-48-46-48]
---------------------------------------------------------------------------------------------------------
[49] (12)
Macklemore & Ryan Lewis
Downtown (Featuring Eric Nally, Melle Mel, Kool Moe Dee & Grandmaster Caz)
[50-33-20-18-19-17-23-27-34-38-41-49]
---------------------------------------------------------------------------------------------------------
[50] (19)
Mark Ronson
I Can't Lose (featuring Keyone Starr)
[36-30-27-24-21-18-14-8-9-11-19-25-24-27-28-27-34-44-50]
---------------------------------------------------------------------------------------------------------
User avatar
LittleArsonist
Personal Assistant
 
Posts: 939
Joined: Wed Jan 14, 2004

Postby LittleArsonist » Fri Nov 27, 2015 10:37 am

navi wrote:My pick of this weeks new entries is
James Bay - If You Ever Want To Be In Love
(others are just not my thing) :wink:
this current week's ones should be more your thing 8-)
User avatar
LittleArsonist
Personal Assistant
 
Posts: 939
Joined: Wed Jan 14, 2004

Return to Personal Charts