50:иgѕ w/e October 21 - raining names

Moderators: JSparksFan, tdc2000, FreakyFlyBry

 

Postby LittleArsonist » Thu Apr 21, 2016 4:37 pm

heppolo wrote:
Elisa • No Hero
Also had it at #1, such a nice song
ooooh so cool to know there are Elisa fans out there :D

heppolo wrote:
Bloc Party • Virtue
Took a bit of time for them to finally produce a music video
ahahah very true!
User avatar
LittleArsonist
Personal Assistant
 
Posts: 940
Joined: Wed Jan 14, 2004

Postby LittleArsonist » Thu Apr 21, 2016 4:38 pm

Tansike wrote:So i've checked out your number one and it's really good! I also heard "Magnetised" and it's good too, but i prefer "Wrong Crowd" :D
agreed and unfortunately Magnetised is actually the real first single :lol:

Also nice debut for Rihanna's "Kiss It Better" :)
reminds me a lot of some cool 90's r&b songs...such as Red Light Special by TLC
User avatar
LittleArsonist
Personal Assistant
 
Posts: 940
Joined: Wed Jan 14, 2004

Postby LittleArsonist » Thu Apr 21, 2016 7:37 pm

cover
[TW] (WI)
artist
track title
[chartrun]
---------------------------------------------------------------------------------------------------------
50:иgѕ (17/52) - week ending April 24
---------------------------------------------------------------------------------------------------------

---------------------------------------------------------------------------------------------------------
Image Image
01 01 03Tom OdellWrong Crowd
[2-1-1]
---------------------------------------------------------------------------------------------------------
Image Image
02 03 05James BayRunning (Live from Abbey Road Studios / 2016)
[17-2-1-3-2]
---------------------------------------------------------------------------------------------------------
Image Image
03 02 11FoxesDevil Side
[40-25-18-16-11-10-1-3-3-2-3]
---------------------------------------------------------------------------------------------------------
Image Image
04 04 04M83Solitude
[11-4-4-4]
---------------------------------------------------------------------------------------------------------
Image Image
05 08 04James BayBest Fake Smile
[27-20-8-5]
---------------------------------------------------------------------------------------------------------
Image Image
06 10 03RY XDeliverance
[15-10-6]
---------------------------------------------------------------------------------------------------------
Image Image
07 07 07Alessia CaraWild Things
[41-20-20-14-7-7-7]
---------------------------------------------------------------------------------------------------------
Image Image
08 06 07Kelly ClarksonPiece By Piece (Idol Version)
[8-5-4-11-8-6-8]
---------------------------------------------------------------------------------------------------------
Image Image
09 09 07RY XOnly
[45-16-14-13-11-9-9]
---------------------------------------------------------------------------------------------------------
Image Image
10 11 05twenty one pilotsRide
[36-18-14-11-10]
---------------------------------------------------------------------------------------------------------
Image Image
11 05 14ElisaNo Hero
[2-2-2-1-1-2-3-2-2-3-1-5-5-11]
---------------------------------------------------------------------------------------------------------
Image Image
12 17 08ZaynIt's You
[50-46-40-34-25-19-17-12]
---------------------------------------------------------------------------------------------------------
Image Image
13 13 12FoalsBirch Tree
[39-36-36-31-15-6-4-5-7-9-13-13]
---------------------------------------------------------------------------------------------------------
Image Image
14 12 11Mystery JetsTelomere
[45-35-27-17-14-11-9-9-12-12-14]
---------------------------------------------------------------------------------------------------------
Image Image
15 38 03Ruth BLost Boy
[42-38-15]
---------------------------------------------------------------------------------------------------------
Image Image
16 21 04DNCECake By The Ocean
[48-41-21-16]
---------------------------------------------------------------------------------------------------------
Image Image
17 15 13SiaUnstoppable
[21-4-3-2-1-2-3-3-6-6-10-15-17]
---------------------------------------------------------------------------------------------------------
Image Image
18 14 13ColdplayHymn For The Weekend
[30-18-10-4-3-1-1-1-2-5-6-14-18]
---------------------------------------------------------------------------------------------------------
Image Image
19 22 11The LumineersOphelia
[38-20-14-8-7-9-10-15-18-22-19]
---------------------------------------------------------------------------------------------------------
Image Image
20 16 09FKA twigsGood To Love
[34-14-10-7-7-8-13-16-20]
---------------------------------------------------------------------------------------------------------
Image Image
21 18 12Turin BrakesKeep Me Around
[45-39-31-22-19-17-15-15-17-21-18-21]
---------------------------------------------------------------------------------------------------------
Image Image
22 23 09Catfish and the BottlemenSoundcheck
[49-41-38-28-25-24-24-23-22]
---------------------------------------------------------------------------------------------------------
Image Image
23 24 11Skunk AnansieDeath To The Lovers
[43-40-35-33-29-23-26-22-26-24-23]
---------------------------------------------------------------------------------------------------------
Image Image
24 20 12Bloc PartyVirtue
[31-27-15-10-6-4-6-8-12-16-20-24]
---------------------------------------------------------------------------------------------------------
Image Image
25 43 02Frightened RabbitGet Out
[43-25]
---------------------------------------------------------------------------------------------------------
Image Image
26 34 03RihannaNeeded Me
[40-34-26]
---------------------------------------------------------------------------------------------------------
Image Image
27 19 10Mike PosnerI Took A Pill In Ibiza
[49-43-36-19-12-12-10-17-19-27]
---------------------------------------------------------------------------------------------------------
Image Image
28 25 14The 1975The Sound
[40-35-33-30-29-30-32-27-27-23-20-23-25-28]
---------------------------------------------------------------------------------------------------------
Image Image
29 28 13Ray LaMontagneHey, No Pressure
[41-35-34-38-38-35-39-30-22-21-27-28-29]
---------------------------------------------------------------------------------------------------------
Image Image
30 31 06Peter Bjorn and JohnWhat You Talking About?
[46-37-33-31-31-30]
---------------------------------------------------------------------------------------------------------
Image Image
31 30 19SiaCheap Thrills
[25-29-34-42-41-36-33-34-31-33-32-34-40-47-27-31-37-30-31]
---------------------------------------------------------------------------------------------------------
Image Image
32 29 15David BowieLazarus
[1-1-1-1-2-3-4-4-9-13-16-19-25-29-32]
---------------------------------------------------------------------------------------------------------
Image Image
33 26 05Troye SivanYouth
[38-32-29-26-33]
---------------------------------------------------------------------------------------------------------
Image Image
34 27 14Of Monsters And MenWolves Without Teeth
[42-38-28-20-14-6-5-5-8-13-16-22-27-34]
---------------------------------------------------------------------------------------------------------
Image Image
35 36 08All SaintsOne Strike
[48-47-39-30-30-33-36-35]
---------------------------------------------------------------------------------------------------------
Image Image
36 33 05The Last Shadow PuppetsBad Habits
[50-41-35-33-36]
---------------------------------------------------------------------------------------------------------
Image Image
37 37 11ZaynPillowtalk
[50-46-45-44-43-42-40-43-39-37-37]
---------------------------------------------------------------------------------------------------------
Image Image
38 45 05Biffy ClyroWolves Of Winter
[48-46-46-45-38]
---------------------------------------------------------------------------------------------------------
Image Image
39 32 17The 1975UGH!
[48-34-24-21-22-22-21-23-25-26-20-18-21-28-30-32-39]
---------------------------------------------------------------------------------------------------------
Image Image
40 00 01Tom OdellMagnetised
[40]
---------------------------------------------------------------------------------------------------------
Image Image
41 47 02RihannaKiss It Better
[47-41]
---------------------------------------------------------------------------------------------------------
Image Image
42 46 03BirdyWild Horses
[49 // 46-42]
---------------------------------------------------------------------------------------------------------
Image Image
43 39 18SnakehipsAll My Friends (Featuring Tinashe & Chance The Rapper)
[46-20-4-4-7-10-14-15-17-15-10-12-14-18-26-32-39-43]
---------------------------------------------------------------------------------------------------------
Image Image
44 42 06Frank TurnerMittens
[50-47-38-36-42-44]
---------------------------------------------------------------------------------------------------------
Image Image
45 35 17Josef SalvatParadise
[44-37-34-26-15-6-5-7-9-9-15-19-19-23-28-35-45]
---------------------------------------------------------------------------------------------------------
Image Image
46 41 12Lukas Graham7 Years
[36-18-11-5-7-13-17-24-29-34-41-46]
---------------------------------------------------------------------------------------------------------
Image Image
47 40 04TravisMagnificent Time
[42-38-40-47]
---------------------------------------------------------------------------------------------------------
Image Image
48 48 02Erik HassleIf Your Man Only Knew
[48-48]
---------------------------------------------------------------------------------------------------------
Image Image
49 00 01P!nkJust Like Fire
[49]
---------------------------------------------------------------------------------------------------------
Image Image
50 00 01SnakehipsMoney on Me (Featuring Anderson .Paak)
[50]
---------------------------------------------------------------------------------------------------------
OUT
---------------------------------------------------------------------------------------------------------
44 01YeasayerI Am Chemistry
[44]
---------------------------------------------------------------------------------------------------------
49 08The 1975Somebody Else
[40-37-34-31-28-34-43-49]
---------------------------------------------------------------------------------------------------------
50 20SiaOne Million Bullets
[19-17-13-16-22-22-22-24-17-17-14-12-12-18-22-26-35-40-47-50]
---------------------------------------------------------------------------------------------------------
User avatar
LittleArsonist
Personal Assistant
 
Posts: 940
Joined: Wed Jan 14, 2004

Postby Tansike » Wed Apr 27, 2016 6:44 am

LittleArsonist wrote:agreed and unfortunately Magnetised is actually the real first single :lol:
What? Really?! :o I thought it's "Wrong Crowd". Weird... i think "Wrong Crowd" is actually easily the better song. So glad it's still reigning your charts! :)

But "Magnetised" is not bad at all, of course. So good to see it appearing this week as well. Also loving the debut for P!nk's new single, which is actually as good as expected IMO (i'm usually not her biggest fan...) :)
User avatar
Tansike
Legend
 
Posts: 44379
Joined: Sat Jan 28, 2012
Location: Switzerland

Postby LittleArsonist » Fri Apr 29, 2016 9:49 am

Tansike wrote:But "Magnetised" is not bad at all, of course.
absolutely so! I'm about to listen to the third song leaked this week :D

Also loving the debut for P!nk's new single, which is actually as good as expected IMO (i'm usually not her biggest fan...) :)
She rarely disappoints me. Love her! 8-)
User avatar
LittleArsonist
Personal Assistant
 
Posts: 940
Joined: Wed Jan 14, 2004

Postby LittleArsonist » Fri Apr 29, 2016 10:33 am

cover
[TW] (WI)
artist
track title
[chartrun]
---------------------------------------------------------------------------------------------------------
50:иgѕ (18/52) - week ending May 1
---------------------------------------------------------------------------------------------------------

---------------------------------------------------------------------------------------------------------
Image Image
01 01 04Tom OdellWrong Crowd
[2-1-1-1]
---------------------------------------------------------------------------------------------------------
Image Image
02 15 04Ruth BLost Boy
[42-38-15-2]
---------------------------------------------------------------------------------------------------------
Image Image
03 05 05James BayBest Fake Smile
[27-20-8-5-3]
---------------------------------------------------------------------------------------------------------
Image Image
04 02 06James BayRunning (Live from Abbey Road Studios / 2016)
[17-2-1-3-2-4]
---------------------------------------------------------------------------------------------------------
Image Image
05 06 04RY XDeliverance
[15-10-6-5]
---------------------------------------------------------------------------------------------------------
Image Image
06 03 12FoxesDevil Side
[40-25-18-16-11-10-1-3-3-2-3-6]
---------------------------------------------------------------------------------------------------------
Image Image
07 04 05M83Solitude
[11-4-4-4-7]
---------------------------------------------------------------------------------------------------------
Image Image
08 12 09ZaynIt's You
[50-46-40-34-25-19-17-12-8]
---------------------------------------------------------------------------------------------------------
Image Image
09 08 08Kelly ClarksonPiece By Piece (Idol Version)
[8-5-4-11-8-6-8-9]
---------------------------------------------------------------------------------------------------------
Image Image
10 16 05DNCECake By The Ocean
[48-41-21-16-10]
---------------------------------------------------------------------------------------------------------
Image Image
11 10 06twenty one pilotsRide
[36-18-14-11-10-11]
---------------------------------------------------------------------------------------------------------
Image Image
12 07 08Alessia CaraWild Things
[41-20-20-14-7-7-7-12]
---------------------------------------------------------------------------------------------------------
Image Image
13 09 08RY XOnly
[45-16-14-13-11-9-9-13]
---------------------------------------------------------------------------------------------------------
Image Image
14 13 13FoalsBirch Tree
[39-36-36-31-15-6-4-5-7-9-13-13-14]
---------------------------------------------------------------------------------------------------------
Image Image
15 25 03Frightened RabbitGet Out
[43-25-15]
---------------------------------------------------------------------------------------------------------
Image Image
16 11 15ElisaNo Hero
[2-2-2-1-1-2-3-2-2-3-1-5-5-11-16]
---------------------------------------------------------------------------------------------------------
Image Image
17 19 12The LumineersOphelia
[38-20-14-8-7-9-10-15-18-22-19-17]
---------------------------------------------------------------------------------------------------------
Image Image
18 14 12Mystery JetsTelomere
[45-35-27-17-14-11-9-9-12-12-14-18]
---------------------------------------------------------------------------------------------------------
Image Image
19 17 14SiaUnstoppable
[21-4-3-2-1-2-3-3-6-6-10-15-17-19]
---------------------------------------------------------------------------------------------------------
Image Image
20 26 04RihannaNeeded Me
[40-34-26-20]
---------------------------------------------------------------------------------------------------------
Image Image
21 38 06Biffy ClyroWolves Of Winter
[48-46-46-45-38-21]
---------------------------------------------------------------------------------------------------------
Image Image
22 40 02Tom OdellMagnetised
[40-22]
---------------------------------------------------------------------------------------------------------
Image Image
23 18 14ColdplayHymn For The Weekend
[30-18-10-4-3-1-1-1-2-5-6-14-18-23]
---------------------------------------------------------------------------------------------------------
Image Image
24 22 10Catfish and the BottlemenSoundcheck
[49-41-38-28-25-24-24-23-22-24]
---------------------------------------------------------------------------------------------------------
Image Image
25 21 13Turin BrakesKeep Me Around
[45-39-31-22-19-17-15-15-17-21-18-21-25]
---------------------------------------------------------------------------------------------------------
Image Image
26 20 10FKA twigsGood To Love
[34-14-10-7-7-8-13-16-20-26]
---------------------------------------------------------------------------------------------------------
Image Image
27 30 07Peter Bjorn and JohnWhat You Talking About?
[46-37-33-31-31-30-27]
---------------------------------------------------------------------------------------------------------
Image Image
28 24 13Bloc PartyVirtue
[31-27-15-10-6-4-6-8-12-16-20-24-28]
---------------------------------------------------------------------------------------------------------
Image Image
29 23 12Skunk AnansieDeath To The Lovers
[43-40-35-33-29-23-26-22-26-24-23-29]
---------------------------------------------------------------------------------------------------------
Image Image
30 28 15The 1975The Sound
[40-35-33-30-29-30-32-27-27-23-20-23-25-28-30]
---------------------------------------------------------------------------------------------------------
Image Image
31 41 03RihannaKiss It Better
[47-41-31]
---------------------------------------------------------------------------------------------------------
Image Image
32 29 14Ray LaMontagneHey, No Pressure
[41-35-34-38-38-35-39-30-22-21-27-28-29-32]
---------------------------------------------------------------------------------------------------------
Image Image
33 33 06Troye SivanYouth
[38-32-29-26-33-33]
---------------------------------------------------------------------------------------------------------
Image Image
34 34 15Of Monsters And MenWolves Without Teeth
[42-38-28-20-14-6-5-5-8-13-16-22-27-34-34]
---------------------------------------------------------------------------------------------------------
Image Image
35 37 12ZaynPillowtalk
[50-46-45-44-43-42-40-43-39-37-37-35]
---------------------------------------------------------------------------------------------------------
Image Image
36 27 11Mike PosnerI Took A Pill In Ibiza
[49-43-36-19-12-12-10-17-19-27-36]
---------------------------------------------------------------------------------------------------------
Image Image
37 32 16David BowieLazarus
[1-1-1-1-2-3-4-4-9-13-16-19-25-29-32-37]
---------------------------------------------------------------------------------------------------------
Image Image
38 36 06The Last Shadow PuppetsBad Habits
[50-41-35-33-36-38]
---------------------------------------------------------------------------------------------------------
Image Image
39 42 04BirdyWild Horses
[49 // 46-42-39]
---------------------------------------------------------------------------------------------------------
Image Image
40 49 02P!nkJust Like Fire
[49-40]
---------------------------------------------------------------------------------------------------------
Image Image
41 31 20SiaCheap Thrills
[25-29-34-42-41-36-33-34-31-33-32-34-40-47-27-31-37-30-31-41]
---------------------------------------------------------------------------------------------------------
Image Image
42 35 09All SaintsOne Strike
[48-47-39-30-30-33-36-35-42]
---------------------------------------------------------------------------------------------------------
Image Image
43 00 01Calum ScottDancing On My Own
[43]
---------------------------------------------------------------------------------------------------------
Image Image
44 39 18The 1975UGH!
[48-34-24-21-22-22-21-23-25-26-20-18-21-28-30-32-39-44]
---------------------------------------------------------------------------------------------------------
Image Image
45 00 01DrakeOne Dance (Featuring Wizkid & Kyla)
[45]
---------------------------------------------------------------------------------------------------------
Image Image
46 50 02SnakehipsMoney on Me (Featuring Anderson .Paak)
[50-46]
---------------------------------------------------------------------------------------------------------
Image Image
47 44 07Frank TurnerMittens
[50-47-38-36-42-44-47]
---------------------------------------------------------------------------------------------------------
Image Image
48 45 18Josef SalvatParadise
[44-37-34-26-15-6-5-7-9-9-15-19-19-23-28-35-45-48]
---------------------------------------------------------------------------------------------------------
Image Image
49 46 13Lukas Graham7 Years
[36-18-11-5-7-13-17-24-29-34-41-46-49]
---------------------------------------------------------------------------------------------------------
Image Image
50 43 19SnakehipsAll My Friends (Featuring Tinashe & Chance The Rapper)
[46-20-4-4-7-10-14-15-17-15-10-12-14-18-26-32-39-43-50]
---------------------------------------------------------------------------------------------------------
OUT
---------------------------------------------------------------------------------------------------------
47 04TravisMagnificent Time
[42-38-40-47]
---------------------------------------------------------------------------------------------------------
48 02Erik HassleIf Your Man Only Knew
[48-48]
---------------------------------------------------------------------------------------------------------
User avatar
LittleArsonist
Personal Assistant
 
Posts: 940
Joined: Wed Jan 14, 2004

Postby Tansike » Thu May 05, 2016 8:44 am

Glad to see "Wild Horses" by Birdy and P!nk's "Just Like Fire" reaching new peaks this week. "Wild Horses" grew so much on me lately! :D

Also great debut for Drake's "One Dance". His best hit for me so far :o
User avatar
Tansike
Legend
 
Posts: 44379
Joined: Sat Jan 28, 2012
Location: Switzerland

Postby LittleArsonist » Thu May 05, 2016 8:57 am

cover
[TW] (WI)
artist
track title
[chartrun]
---------------------------------------------------------------------------------------------------------
50:иgѕ (19/52) - week ending May 8
---------------------------------------------------------------------------------------------------------

---------------------------------------------------------------------------------------------------------
Image Image
01 00 01RadioheadBurn The Witch
[1]
---------------------------------------------------------------------------------------------------------
Image Image
02 00 01Chelsea JadeLow Brow
[2]
---------------------------------------------------------------------------------------------------------
Image Image
03 01 05Tom OdellWrong Crowd
[2-1-1-1-3]
---------------------------------------------------------------------------------------------------------
Image Image
04 02 05Ruth BLost Boy
[42-38-15-2-4]
---------------------------------------------------------------------------------------------------------
Image Image
05 22 03Tom OdellMagnetised
[40-22-5]
---------------------------------------------------------------------------------------------------------
Image Image
06 03 06James BayBest Fake Smile
[27-20-8-5-3-6]
---------------------------------------------------------------------------------------------------------
Image Image
07 11 07twenty one pilotsRide
[36-18-14-11-10-11-7]
---------------------------------------------------------------------------------------------------------
Image Image
08 04 07James BayRunning (Live from Abbey Road Studios / 2016)
[17-2-1-3-2-4-8]
---------------------------------------------------------------------------------------------------------
Image Image
09 06 13FoxesDevil Side
[40-25-18-16-11-10-1-3-3-2-3-6-9]
---------------------------------------------------------------------------------------------------------
Image Image
10 07 06M83Solitude
[11-4-4-4-7-10]
---------------------------------------------------------------------------------------------------------
Image Image
11 05 05RY XDeliverance
[15-10-6-5-11]
---------------------------------------------------------------------------------------------------------
Image Image
12 15 04Frightened RabbitGet Out
[43-25-15-12]
---------------------------------------------------------------------------------------------------------
Image Image
13 09 09Kelly ClarksonPiece By Piece (Idol Version)
[8-5-4-11-8-6-8-9-13]
---------------------------------------------------------------------------------------------------------
Image Image
14 12 09Alessia CaraWild Things
[41-20-20-14-7-7-7-12-14]
---------------------------------------------------------------------------------------------------------
Image Image
15 08 10ZaynIt's You
[50-46-40-34-25-19-17-12-8-15]
---------------------------------------------------------------------------------------------------------
Image Image
16 13 09RY XOnly
[45-16-14-13-11-9-9-13-16]
---------------------------------------------------------------------------------------------------------
Image Image
17 10 06DNCECake By The Ocean
[48-41-21-16-10-17]
---------------------------------------------------------------------------------------------------------
Image Image
18 20 05RihannaNeeded Me
[40-34-26-20-18]
---------------------------------------------------------------------------------------------------------
Image Image
19 21 07Biffy ClyroWolves Of Winter
[48-46-46-45-38-21-19]
---------------------------------------------------------------------------------------------------------
Image Image
20 14 14FoalsBirch Tree
[39-36-36-31-15-6-4-5-7-9-13-13-14-20]
---------------------------------------------------------------------------------------------------------
Image Image
21 18 13Mystery JetsTelomere
[45-35-27-17-14-11-9-9-12-12-14-18-21]
---------------------------------------------------------------------------------------------------------
Image Image
22 17 13The LumineersOphelia
[38-20-14-8-7-9-10-15-18-22-19-17-22]
---------------------------------------------------------------------------------------------------------
Image Image
23 31 04RihannaKiss It Better
[47-41-31-23]
---------------------------------------------------------------------------------------------------------
Image Image
24 16 16ElisaNo Hero
[2-2-2-1-1-2-3-2-2-3-1-5-5-11-16-24]
---------------------------------------------------------------------------------------------------------
Image Image
25 19 15SiaUnstoppable
[21-4-3-2-1-2-3-3-6-6-10-15-17-19-25]
---------------------------------------------------------------------------------------------------------
Image Image
26 00 01ColdplayUp&Up
[26]
---------------------------------------------------------------------------------------------------------
Image Image
27 27 08Peter Bjorn and JohnWhat You Talking About?
[46-37-33-31-31-30-27-27]
---------------------------------------------------------------------------------------------------------
Image Image
28 24 11Catfish and the BottlemenSoundcheck
[49-41-38-28-25-24-24-23-22-24-28]
---------------------------------------------------------------------------------------------------------
Image Image
29 29 13Skunk AnansieDeath To The Lovers
[43-40-35-33-29-23-26-22-26-24-23-29-29]
---------------------------------------------------------------------------------------------------------
Image Image
30 26 11FKA twigsGood To Love
[34-14-10-7-7-8-13-16-20-26-30]
---------------------------------------------------------------------------------------------------------
Image Image
31 23 15ColdplayHymn For The Weekend
[30-18-10-4-3-1-1-1-2-5-6-14-18-23-31]
---------------------------------------------------------------------------------------------------------
Image Image
32 25 14Turin BrakesKeep Me Around
[45-39-31-22-19-17-15-15-17-21-18-21-25-32]
---------------------------------------------------------------------------------------------------------
Image Image
33 28 14Bloc PartyVirtue
[31-27-15-10-6-4-6-8-12-16-20-24-28-33]
---------------------------------------------------------------------------------------------------------
Image Image
34 32 15Ray LaMontagneHey, No Pressure
[41-35-34-38-38-35-39-30-22-21-27-28-29-32-34]
---------------------------------------------------------------------------------------------------------
Image Image
35 39 05BirdyWild Horses
[49 // 46-42-39-35]
---------------------------------------------------------------------------------------------------------
Image Image
36 00 01Catfish and the Bottlemen7
[36]
---------------------------------------------------------------------------------------------------------
Image Image
37 30 16The 1975The Sound
[40-35-33-30-29-30-32-27-27-23-20-23-25-28-30-37]
---------------------------------------------------------------------------------------------------------
Image Image
38 37 17David BowieLazarus
[1-1-1-1-2-3-4-4-9-13-16-19-25-29-32-37-38]
---------------------------------------------------------------------------------------------------------
Image Image
39 34 16Of Monsters And MenWolves Without Teeth
[42-38-28-20-14-6-5-5-8-13-16-22-27-34-34-39]
---------------------------------------------------------------------------------------------------------
Image Image
40 43 02Calum ScottDancing On My Own
[43-40]
---------------------------------------------------------------------------------------------------------
Image Image
41 40 03P!nkJust Like Fire
[49-40-41]
---------------------------------------------------------------------------------------------------------
Image Image
42 38 07The Last Shadow PuppetsBad Habits
[50-41-35-33-36-38-42]
---------------------------------------------------------------------------------------------------------
Image Image
43 33 07Troye SivanYouth
[38-32-29-26-33-33-43]
---------------------------------------------------------------------------------------------------------
Image Image
44 45 02DrakeOne Dance (Featuring Wizkid & Kyla)
[45-44]
---------------------------------------------------------------------------------------------------------
Image Image
45 35 13ZaynPillowtalk
[50-46-45-44-43-42-40-43-39-37-37-35-45]
---------------------------------------------------------------------------------------------------------
Image Image
46 00 01Tom OdellConstellations
[46]
---------------------------------------------------------------------------------------------------------
Image Image
47 46 03SnakehipsMoney on Me (Featuring Anderson .Paak)
[50-46-47]
---------------------------------------------------------------------------------------------------------
Image Image
48 36 12Mike PosnerI Took A Pill In Ibiza
[49-43-36-19-12-12-10-17-19-27-36-48]
---------------------------------------------------------------------------------------------------------
Image Image
49 42 10All SaintsOne Strike
[48-47-39-30-30-33-36-35-42-49]
---------------------------------------------------------------------------------------------------------
Image Image
50 00 01Alicia KeysIn Common
[50]
---------------------------------------------------------------------------------------------------------
OUT
---------------------------------------------------------------------------------------------------------
41 20SiaCheap Thrills
[25-29-34-42-41-36-33-34-31-33-32-34-40-47-27-31-37-30-31-41]
---------------------------------------------------------------------------------------------------------
44 18The 1975UGH!
[48-34-24-21-22-22-21-23-25-26-20-18-21-28-30-32-39-44]
---------------------------------------------------------------------------------------------------------
47 07Frank TurnerMittens
[50-47-38-36-42-44-47]
---------------------------------------------------------------------------------------------------------
48 18Josef SalvatParadise
[44-37-34-26-15-6-5-7-9-9-15-19-19-23-28-35-45-48]
---------------------------------------------------------------------------------------------------------
49 13Lukas Graham7 Years
[36-18-11-5-7-13-17-24-29-34-41-46-49]
---------------------------------------------------------------------------------------------------------
50 19SnakehipsAll My Friends (Featuring Tinashe & Chance The Rapper)
[46-20-4-4-7-10-14-15-17-15-10-12-14-18-26-32-39-43-50]
---------------------------------------------------------------------------------------------------------
Last edited by LittleArsonist on Thu May 12, 2016 6:11 pm, edited 1 time in total.
User avatar
LittleArsonist
Personal Assistant
 
Posts: 940
Joined: Wed Jan 14, 2004

Postby LittleArsonist » Thu May 05, 2016 9:01 am

Tansike wrote:"Wild Horses" grew so much on me lately! :D
I think it's one of her best tracks off the new album :)

Also great debut for Drake's "One Dance". His best hit for me so far :o
best rap artist around of the last 4 years imo

p.s. you NEED to check Chelsea Jade and ...have you heard Tom Odell's Constellations? :o it's just wow.
User avatar
LittleArsonist
Personal Assistant
 
Posts: 940
Joined: Wed Jan 14, 2004

Postby heppolo » Thu May 05, 2016 2:33 pm

Catfish and the Bottlemen • 7
Great new entry 8-)
Waffles are checked cookies
User avatar
heppolo
Legend
 
Posts: 22744
Joined: Sun May 17, 2009
Location: interchangeable

Postby Tansike » Wed May 11, 2016 4:36 am

LittleArsonist wrote:I think it's one of her best tracks off the new album :)
...
best rap artist around of the last 4 years imo

p.s. you NEED to check Chelsea Jade and ...have you heard Tom Odell's Constellations? :o it's just wow.
Agree about Birdy/Drake, but have to say no to the other two points. I'll check both out! :)

Not sure if i'll find some time to check out the new Radiohead album as there's so much new stuff lately, but i try to.

Nice debut for "Up & Up". I'm surprised they didn't go with "Fun" as the next single though.
Also good to see Alicia's new track which is fierce. Hopefully a hit for her :D
User avatar
Tansike
Legend
 
Posts: 44379
Joined: Sat Jan 28, 2012
Location: Switzerland

Postby LittleArsonist » Thu May 12, 2016 5:25 pm

heppolo wrote:
Catfish and the Bottlemen • 7
Great new entry 8-)
:D I'm so curious about their second album
User avatar
LittleArsonist
Personal Assistant
 
Posts: 940
Joined: Wed Jan 14, 2004

Postby LittleArsonist » Thu May 12, 2016 5:27 pm

Tansike wrote: I'll check both out! :)
I found out about Chelsea Jade because Lorde shared the video for the song Low Brow on her Twitter and I was :o

Not sure if i'll find some time to check out the new Radiohead album as there's so much new stuff lately, but i try to.
yea...these past 2 weeks have been FULL. Radiohead album is a gem.

Also good to see Alicia's new track which is fierce. Hopefully a hit for her :D
absolutely agree..so different from her latest efforts :wink:
User avatar
LittleArsonist
Personal Assistant
 
Posts: 940
Joined: Wed Jan 14, 2004

Postby LittleArsonist » Thu May 12, 2016 6:08 pm

cover
[TW] (WI)
artist
track title
[chartrun]
---------------------------------------------------------------------------------------------------------
50:иgѕ (20/52) - week ending May 15
---------------------------------------------------------------------------------------------------------

---------------------------------------------------------------------------------------------------------
Image Image
01 01 02RadioheadBurn The Witch
[1-1]
---------------------------------------------------------------------------------------------------------
Image Image
02 00 01Red Hot Chili PeppersDark Necessities
[2]
---------------------------------------------------------------------------------------------------------
Image Image
03 02 02Chelsea JadeLow Brow
[2-3]
---------------------------------------------------------------------------------------------------------
Image Image
04 05 04Tom OdellMagnetised
[40-22-5-4]
---------------------------------------------------------------------------------------------------------
Image Image
05 00 01RadioheadDaydreaming
[5]
---------------------------------------------------------------------------------------------------------
Image Image
06 04 06Ruth BLost Boy
[42-38-15-2-4-6]
---------------------------------------------------------------------------------------------------------
Image Image
07 03 06Tom OdellWrong Crowd
[2-1-1-1-3-7]
---------------------------------------------------------------------------------------------------------
Image Image
08 09 14FoxesDevil Side
[40-25-18-16-11-10-1-3-3-2-3-6-9-8]
---------------------------------------------------------------------------------------------------------
Image Image
09 06 07James BayBest Fake Smile
[27-20-8-5-3-6-9]
---------------------------------------------------------------------------------------------------------
Image Image
10 07 08twenty one pilotsRide
[36-18-14-11-10-11-7-10]
---------------------------------------------------------------------------------------------------------
Image Image
11 10 07M83Solitude
[11-4-4-4-7-10-11]
---------------------------------------------------------------------------------------------------------
Image Image
12 12 05Frightened RabbitGet Out
[43-25-15-12-12]
---------------------------------------------------------------------------------------------------------
Image Image
13 08 08James BayRunning (Live from Abbey Road Studios / 2016)
[17-2-1-3-2-4-8-13]
---------------------------------------------------------------------------------------------------------
Image Image
14 26 02ColdplayUp&Up
[26-14]
---------------------------------------------------------------------------------------------------------
Image Image
15 11 06RY XDeliverance
[15-10-6-5-11-15]
---------------------------------------------------------------------------------------------------------
Image Image
16 18 06RihannaNeeded Me
[40-34-26-20-18-16]
---------------------------------------------------------------------------------------------------------
Image Image
17 14 10Alessia CaraWild Things
[41-20-20-14-7-7-7-12-14-17]
---------------------------------------------------------------------------------------------------------
Image Image
18 16 10RY XOnly
[45-16-14-13-11-9-9-13-16-18]
---------------------------------------------------------------------------------------------------------
Image Image
19 19 08Biffy ClyroWolves Of Winter
[48-46-46-45-38-21-19-19]
---------------------------------------------------------------------------------------------------------
Image Image
20 46 02Tom OdellConstellations
[46-20]
---------------------------------------------------------------------------------------------------------
Image Image
21 13 10Kelly ClarksonPiece By Piece (Idol Version)
[8-5-4-11-8-6-8-9-13-21]
---------------------------------------------------------------------------------------------------------
Image Image
22 23 05RihannaKiss It Better
[47-41-31-23-22]
---------------------------------------------------------------------------------------------------------
Image Image
23 00 01ElisaLove Me Forever
[23]
---------------------------------------------------------------------------------------------------------
Image Image
24 21 14Mystery JetsTelomere
[45-35-27-17-14-11-9-9-12-12-14-18-21-24]
---------------------------------------------------------------------------------------------------------
Image Image
25 15 11ZaynIt's You
[50-46-40-34-25-19-17-12-8-15-25]
---------------------------------------------------------------------------------------------------------
Image Image
26 20 15FoalsBirch Tree
[39-36-36-31-15-6-4-5-7-9-13-13-14-20-26]
---------------------------------------------------------------------------------------------------------
Image Image
27 36 02Catfish and the Bottlemen7
[36-27]
---------------------------------------------------------------------------------------------------------
Image Image
28 17 07DNCECake By The Ocean
[48-41-21-16-10-17-28]
---------------------------------------------------------------------------------------------------------
Image Image
29 24 17ElisaNo Hero
[2-2-2-1-1-2-3-2-2-3-1-5-5-11-16-24-29]
---------------------------------------------------------------------------------------------------------
Image Image
30 27 09Peter Bjorn and JohnWhat You Talking About?
[46-37-33-31-31-30-27-27-30]
---------------------------------------------------------------------------------------------------------
Image Image
31 25 16SiaUnstoppable
[21-4-3-2-1-2-3-3-6-6-10-15-17-19-25-31]
---------------------------------------------------------------------------------------------------------
Image Image
32 22 14The LumineersOphelia
[38-20-14-8-7-9-10-15-18-22-19-17-22-32]
---------------------------------------------------------------------------------------------------------
Image Image
33 30 12FKA twigsGood To Love
[34-14-10-7-7-8-13-16-20-26-30-33]
---------------------------------------------------------------------------------------------------------
Image Image
34 40 03Calum ScottDancing On My Own
[43-40-34]
---------------------------------------------------------------------------------------------------------
Image Image
35 35 06BirdyWild Horses
[49 // 46-42-39-35-35]
---------------------------------------------------------------------------------------------------------
Image Image
36 28 12Catfish and the BottlemenSoundcheck
[49-41-38-28-25-24-24-23-22-24-28-36]
---------------------------------------------------------------------------------------------------------
Image Image
37 29 14Skunk AnansieDeath To The Lovers
[43-40-35-33-29-23-26-22-26-24-23-29-29-37]
---------------------------------------------------------------------------------------------------------
Image Image
38 31 16ColdplayHymn For The Weekend
[30-18-10-4-3-1-1-1-2-5-6-14-18-23-31-38]
---------------------------------------------------------------------------------------------------------
Image Image
39 41 04P!nkJust Like Fire
[49-40-41-39]
---------------------------------------------------------------------------------------------------------
Image Image
40 32 15Turin BrakesKeep Me Around
[45-39-31-22-19-17-15-15-17-21-18-21-25-32-40]
---------------------------------------------------------------------------------------------------------
Image Image
41 38 18David BowieLazarus
[1-1-1-1-2-3-4-4-9-13-16-19-25-29-32-37-38-41]
---------------------------------------------------------------------------------------------------------
Image Image
42 33 15Bloc PartyVirtue
[31-27-15-10-6-4-6-8-12-16-20-24-28-33-42]
---------------------------------------------------------------------------------------------------------
Image Image
43 44 03DrakeOne Dance (Featuring Wizkid & Kyla)
[45-44-43]
---------------------------------------------------------------------------------------------------------
Image Image
44 50 02Alicia KeysIn Common
[50-44]
---------------------------------------------------------------------------------------------------------
Image Image
45 34 16Ray LaMontagneHey, No Pressure
[41-35-34-38-38-35-39-30-22-21-27-28-29-32-34-45]
---------------------------------------------------------------------------------------------------------
Image Image
46 39 17Of Monsters And MenWolves Without Teeth
[42-38-28-20-14-6-5-5-8-13-16-22-27-34-34-39-46]
---------------------------------------------------------------------------------------------------------
Image Image
47 37 17The 1975The Sound
[40-35-33-30-29-30-32-27-27-23-20-23-25-28-30-37-47]
---------------------------------------------------------------------------------------------------------
Image Image
48 00 01James BlakeI Need A Forest Fire (Featuring Bon Iver)
[48]
---------------------------------------------------------------------------------------------------------
Image Image
49 42 08The Last Shadow PuppetsBad Habits
[50-41-35-33-36-38-42-49]
---------------------------------------------------------------------------------------------------------
Image Image
50 00 01Justin TimberlakeCan't Stop The Feeling!
[50]
---------------------------------------------------------------------------------------------------------
OUT
---------------------------------------------------------------------------------------------------------
43 07Troye SivanYouth
[38-32-29-26-33-33-43]
---------------------------------------------------------------------------------------------------------
45 13ZaynPillowtalk
[50-46-45-44-43-42-40-43-39-37-37-35-45]
---------------------------------------------------------------------------------------------------------
47 03SnakehipsMoney on Me (Featuring Anderson .Paak)
[50-46-47]
---------------------------------------------------------------------------------------------------------
48 12Mike PosnerI Took A Pill In Ibiza
[49-43-36-19-12-12-10-17-19-27-36-48]
---------------------------------------------------------------------------------------------------------
49 10All SaintsOne Strike
[48-47-39-30-30-33-36-35-42-49]
---------------------------------------------------------------------------------------------------------
Last edited by LittleArsonist on Thu Jun 02, 2016 9:55 am, edited 1 time in total.
User avatar
LittleArsonist
Personal Assistant
 
Posts: 940
Joined: Wed Jan 14, 2004

Postby Tansike » Wed May 18, 2016 7:10 am

Foxes' longevity for "Devil Side" is quite impressive. Since "Cruel" is the new single, will it be able to make an entry soon as well? It's my favorite song on the whole album... :oops:

Good to see a new peak for P!nk & Birdy being stable with her entry.
Justin Timberlake's song needs to grow on me more... it's nice, but nothing outstanding somehow. I'm surprised it's smashing so hard...
User avatar
Tansike
Legend
 
Posts: 44379
Joined: Sat Jan 28, 2012
Location: Switzerland

Postby LittleArsonist » Thu May 19, 2016 9:00 am

Tansike wrote:Foxes' longevity for "Devil Side" is quite impressive. Since "Cruel" is the new single, will it be able to make an entry soon as well? It's my favorite song on the whole album... :oops:
ooh didn't know about this! :) gotta check the video for it then!

Justin Timberlake's song needs to grow on me more... it's nice, but nothing outstanding somehow. I'm surprised it's smashing so hard...
it's the kind of song perfect for summer season... when it comes to pop, he knows how to do it well! #1 in UK and US :o
User avatar
LittleArsonist
Personal Assistant
 
Posts: 940
Joined: Wed Jan 14, 2004

Postby LittleArsonist » Thu May 19, 2016 10:16 am

cover
[TW] (WI)
artist
track title
[chartrun]
---------------------------------------------------------------------------------------------------------
50:иgѕ (21/52) - week ending May 22
---------------------------------------------------------------------------------------------------------

---------------------------------------------------------------------------------------------------------
Image Image
01 01 03RadioheadBurn The Witch
[1-1-1]
---------------------------------------------------------------------------------------------------------
Image Image
02 00 01AdeleSend My Love (To Your New Lover)
[2]
---------------------------------------------------------------------------------------------------------
Image Image
03 03 03Chelsea JadeLow Brow
[2-3-3]
---------------------------------------------------------------------------------------------------------
Image Image
04 06 07Ruth BLost Boy
[42-38-15-2-4-6-4]
---------------------------------------------------------------------------------------------------------
Image Image
05 02 02Red Hot Chili PeppersDark Necessities
[2-5]
---------------------------------------------------------------------------------------------------------
Image Image
06 04 05Tom OdellMagnetised
[40-22-5-4-6]
---------------------------------------------------------------------------------------------------------
Image Image
07 05 02RadioheadDaydreaming
[5-7]
---------------------------------------------------------------------------------------------------------
Image Image
08 07 07Tom OdellWrong Crowd
[2-1-1-1-3-7-8]
---------------------------------------------------------------------------------------------------------
Image Image
09 20 03Tom OdellConstellations
[46-20-9]
---------------------------------------------------------------------------------------------------------
Image Image
10 14 03ColdplayUp&Up
[26-14-10]
---------------------------------------------------------------------------------------------------------
Image Image
11 09 08James BayBest Fake Smile
[27-20-8-5-3-6-9-11]
---------------------------------------------------------------------------------------------------------
Image Image
12 10 09twenty one pilotsRide
[36-18-14-11-10-11-7-10-12]
---------------------------------------------------------------------------------------------------------
Image Image
13 12 06Frightened RabbitGet Out
[43-25-15-12-12-13]
---------------------------------------------------------------------------------------------------------
Image Image
14 13 09James BayRunning (Live from Abbey Road Studios / 2016)
[17-2-1-3-2-4-8-13-14]
---------------------------------------------------------------------------------------------------------
Image Image
15 08 15FoxesDevil Side
[40-25-18-16-11-10-1-3-3-2-3-6-9-8-15]
---------------------------------------------------------------------------------------------------------
Image Image
16 22 06RihannaKiss It Better
[47-41-31-23-22-16]
---------------------------------------------------------------------------------------------------------
Image Image
17 16 07RihannaNeeded Me
[40-34-26-20-18-16-17]
---------------------------------------------------------------------------------------------------------
Image Image
18 11 08M83Solitude
[11-4-4-4-7-10-11-18]
---------------------------------------------------------------------------------------------------------
Image Image
19 15 07RY XDeliverance
[15-10-6-5-11-15-19]
---------------------------------------------------------------------------------------------------------
Image Image
20 50 02Justin TimberlakeCan't Stop The Feeling!
[50-20]
---------------------------------------------------------------------------------------------------------
Image Image
21 17 11Alessia CaraWild Things
[41-20-20-14-7-7-7-12-14-17-21]
---------------------------------------------------------------------------------------------------------
Image Image
22 23 02ElisaLove Me Forever
[23-22]
---------------------------------------------------------------------------------------------------------
Image Image
23 19 09Biffy ClyroWolves Of Winter
[48-46-46-45-38-21-19-19-23]
---------------------------------------------------------------------------------------------------------
Image Image
24 18 11RY XOnly
[45-16-14-13-11-9-9-13-16-18-24]
---------------------------------------------------------------------------------------------------------
Image Image
25 27 03Catfish and the Bottlemen7
[36-27-25]
---------------------------------------------------------------------------------------------------------
Image Image
26 44 03Alicia KeysIn Common
[50-44-26]
---------------------------------------------------------------------------------------------------------
Image Image
27 21 11Kelly ClarksonPiece By Piece (Idol Version)
[8-5-4-11-8-6-8-9-13-21-27]
---------------------------------------------------------------------------------------------------------
Image Image
28 30 10Peter Bjorn and JohnWhat You Talking About?
[46-37-33-31-31-30-27-27-30-28]
---------------------------------------------------------------------------------------------------------
Image Image
29 24 15Mystery JetsTelomere
[45-35-27-17-14-11-9-9-12-12-14-18-21-24-29]
---------------------------------------------------------------------------------------------------------
Image Image
30 00 01The 1975A Change Of Heart
[30]
---------------------------------------------------------------------------------------------------------
Image Image
31 34 04Calum ScottDancing On My Own
[43-40-34-31]
---------------------------------------------------------------------------------------------------------
Image Image
32 25 12ZaynIt's You
[50-46-40-34-25-19-17-12-8-15-25-32]
---------------------------------------------------------------------------------------------------------
Image Image
33 29 18ElisaNo Hero
[2-2-2-1-1-2-3-2-2-3-1-5-5-11-16-24-29-33]
---------------------------------------------------------------------------------------------------------
Image Image
34 35 07BirdyWild Horses
[49 // 46-42-39-35-35-34]
---------------------------------------------------------------------------------------------------------
Image Image
35 26 16FoalsBirch Tree
[39-36-36-31-15-6-4-5-7-9-13-13-14-20-26-35]
---------------------------------------------------------------------------------------------------------
Image Image
36 28 08DNCECake By The Ocean
[48-41-21-16-10-17-28-36]
---------------------------------------------------------------------------------------------------------
Image Image
37 39 05P!nkJust Like Fire
[49-40-41-39-37]
---------------------------------------------------------------------------------------------------------
Image Image
38 32 15The LumineersOphelia
[38-20-14-8-7-9-10-15-18-22-19-17-22-32-38]
---------------------------------------------------------------------------------------------------------
Image Image
39 33 13FKA twigsGood To Love
[34-14-10-7-7-8-13-16-20-26-30-33-39]
---------------------------------------------------------------------------------------------------------
Image Image
40 36 13Catfish and the BottlemenSoundcheck
[49-41-38-28-25-24-24-23-22-24-28-36-40]
---------------------------------------------------------------------------------------------------------
Image Image
41 31 17SiaUnstoppable
[21-4-3-2-1-2-3-3-6-6-10-15-17-19-25-31-41]
---------------------------------------------------------------------------------------------------------
Image Image
42 37 15Skunk AnansieDeath To The Lovers
[43-40-35-33-29-23-26-22-26-24-23-29-29-37-42]
---------------------------------------------------------------------------------------------------------
Image Image
43 43 04DrakeOne Dance (Featuring Wizkid & Kyla)
[45-44-43-43]
---------------------------------------------------------------------------------------------------------
Image Image
44 38 17ColdplayHymn For The Weekend
[30-18-10-4-3-1-1-1-2-5-6-14-18-23-31-38-44]
---------------------------------------------------------------------------------------------------------
Image Image
45 00 01EditorsForgiveness
[45]
---------------------------------------------------------------------------------------------------------
Image Image
46 41 19David BowieLazarus
[1-1-1-1-2-3-4-4-9-13-16-19-25-29-32-37-38-41-46]
---------------------------------------------------------------------------------------------------------
Image Image
47 48 02James BlakeI Need A Forest Fire (Featuring Bon Iver)
[48-47]
---------------------------------------------------------------------------------------------------------
Image Image
48 40 16Turin BrakesKeep Me Around
[45-39-31-22-19-17-15-15-17-21-18-21-25-32-40-48]
---------------------------------------------------------------------------------------------------------
Image Image
49 00 01Janet JacksonDammn Baby
[49]
---------------------------------------------------------------------------------------------------------
Image Image
50 00 01All SaintsThis Is A War
[50]
---------------------------------------------------------------------------------------------------------
OUT
---------------------------------------------------------------------------------------------------------
42 15Bloc PartyVirtue
[31-27-15-10-6-4-6-8-12-16-20-24-28-33-42]
---------------------------------------------------------------------------------------------------------
45 16Ray LaMontagneHey, No Pressure
[41-35-34-38-38-35-39-30-22-21-27-28-29-32-34-45]
---------------------------------------------------------------------------------------------------------
46 17Of Monsters And MenWolves Without Teeth
[42-38-28-20-14-6-5-5-8-13-16-22-27-34-34-39-46]
---------------------------------------------------------------------------------------------------------
47 17The 1975The Sound
[40-35-33-30-29-30-32-27-27-23-20-23-25-28-30-37-47]
---------------------------------------------------------------------------------------------------------
49 08The Last Shadow PuppetsBad Habits
[50-41-35-33-36-38-42-49]
---------------------------------------------------------------------------------------------------------
Last edited by LittleArsonist on Thu Jun 02, 2016 9:55 am, edited 1 time in total.
User avatar
LittleArsonist
Personal Assistant
 
Posts: 940
Joined: Wed Jan 14, 2004

Postby Tansike » Wed May 25, 2016 5:44 am

Checked out your #1 and it sounded pretty good and interesting. I think i'll give the full album a spin sooner or later now.
Also checked out the entries by Chelsea Jade, Red Hot Chili Peppers and James Blake's "I Need A Forest Fire" (because the cover looks great & i love forest themes :oops: ). Chelsea sounded interesting, is she planning to release an Album?
As for the Peppers, it sounded okayish, but somehow not strong enough for a comeback. James' song was pretty good though.

LOVE that high debut for "Send My Love (To Your New Lover)"! Fantastic pick for the next single, and hopefully a big hit for Adele. I'm also a fan of the video... :oops:

Also nice debuts for Janet Jackson and All Saints :)
User avatar
Tansike
Legend
 
Posts: 44379
Joined: Sat Jan 28, 2012
Location: Switzerland

Postby LittleArsonist » Thu May 26, 2016 1:40 pm

Tansike wrote:Checked out your #1 and it sounded pretty good and interesting. I think i'll give the full album a spin sooner or later now.
Yes! I must admit BTW is somehow different from the rest of the cd, that is more Sigur-Ros-ish and introspective. It's a great one imo.

Chelsea sounded interesting, is she planning to release an Album?
Truly hope so! For now just an EP.

As for the Peppers, it sounded okayish, but somehow not strong enough for a comeback. James' song was pretty good though.
like the jam of the former...while the latter released a GREAT album overall.

LOVE that high debut for "Send My Love (To Your New Lover)"! Fantastic pick for the next single, and hopefully a big hit for Adele. I'm also a fan of the video... :oops:
love it too...this week I should have seen her....but was so unlucky with tickets :cry:
User avatar
LittleArsonist
Personal Assistant
 
Posts: 940
Joined: Wed Jan 14, 2004

Postby LittleArsonist » Thu May 26, 2016 3:47 pm

cover
[TW] (WI)
artist
track title
[chartrun]
---------------------------------------------------------------------------------------------------------
50:иgѕ (22/52) - week ending May 29
---------------------------------------------------------------------------------------------------------

---------------------------------------------------------------------------------------------------------
Image Image
01 01 04RadioheadBurn The Witch
[1-1-1-1]
---------------------------------------------------------------------------------------------------------
Image Image
02 02 02AdeleSend My Love (To Your New Lover)
[2-2]
---------------------------------------------------------------------------------------------------------
Image Image
03 09 04Tom OdellConstellations
[46-20-9-3]
---------------------------------------------------------------------------------------------------------
Image Image
04 03 04Chelsea JadeLow Brow
[2-3-3-4]
---------------------------------------------------------------------------------------------------------
Image Image
05 20 03Justin TimberlakeCan't Stop The Feeling!
[50-20-5]
---------------------------------------------------------------------------------------------------------
Image Image
06 05 03Red Hot Chili PeppersDark Necessities
[2-5-6]
---------------------------------------------------------------------------------------------------------
Image Image
07 04 08Ruth BLost Boy
[42-38-15-2-4-6-4-7]
---------------------------------------------------------------------------------------------------------
Image Image
08 07 03RadioheadDaydreaming
[5-7-8]
---------------------------------------------------------------------------------------------------------
Image Image
09 06 06Tom OdellMagnetised
[40-22-5-4-6-9]
---------------------------------------------------------------------------------------------------------
Image Image
10 10 04ColdplayUp&Up
[26-14-10-10]
---------------------------------------------------------------------------------------------------------
Image Image
11 16 07RihannaKiss It Better
[47-41-31-23-22-16-11]
---------------------------------------------------------------------------------------------------------
Image Image
12 08 08Tom OdellWrong Crowd
[2-1-1-1-3-7-8-12]
---------------------------------------------------------------------------------------------------------
Image Image
13 13 07Frightened RabbitGet Out
[43-25-15-12-12-13-13]
---------------------------------------------------------------------------------------------------------
Image Image
14 18 09M83Solitude
[11-4-4-4-7-10-11-18-14]
---------------------------------------------------------------------------------------------------------
Image Image
15 12 10twenty one pilotsRide
[36-18-14-11-10-11-7-10-12-15]
---------------------------------------------------------------------------------------------------------
Image Image
16 14 10James BayRunning (Live from Abbey Road Studios / 2016)
[17-2-1-3-2-4-8-13-14-16]
---------------------------------------------------------------------------------------------------------
Image Image
17 22 03ElisaLove Me Forever
[23-22-17]
---------------------------------------------------------------------------------------------------------
Image Image
18 17 08RihannaNeeded Me
[40-34-26-20-18-16-17-18]
---------------------------------------------------------------------------------------------------------
Image Image
19 11 09James BayBest Fake Smile
[27-20-8-5-3-6-9-11-19]
---------------------------------------------------------------------------------------------------------
Image Image
20 26 04Alicia KeysIn Common
[50-44-26-20]
---------------------------------------------------------------------------------------------------------
Image Image
21 30 02The 1975A Change Of Heart
[30-21]
---------------------------------------------------------------------------------------------------------
Image Image
22 00 01RadioheadSpectre
[22]
---------------------------------------------------------------------------------------------------------
Image Image
23 21 12Alessia CaraWild Things
[41-20-20-14-7-7-7-12-14-17-21-23]
---------------------------------------------------------------------------------------------------------
Image Image
24 15 16FoxesDevil Side
[40-25-18-16-11-10-1-3-3-2-3-6-9-8-15-24]
---------------------------------------------------------------------------------------------------------
Image Image
25 34 08BirdyWild Horses
[49 // 46-42-39-35-35-34-25]
---------------------------------------------------------------------------------------------------------
Image Image
26 24 12RY XOnly
[45-16-14-13-11-9-9-13-16-18-24-26]
---------------------------------------------------------------------------------------------------------
Image Image
27 25 04Catfish and the Bottlemen7
[36-27-25-27]
---------------------------------------------------------------------------------------------------------
Image Image
28 27 12Kelly ClarksonPiece By Piece (Idol Version)
[8-5-4-11-8-6-8-9-13-21-27-28]
---------------------------------------------------------------------------------------------------------
Image Image
29 19 08RY XDeliverance
[15-10-6-5-11-15-19-29]
---------------------------------------------------------------------------------------------------------
Image Image
30 37 06P!nkJust Like Fire
[49-40-41-39-37-30]
---------------------------------------------------------------------------------------------------------
Image Image
31 31 05Calum ScottDancing On My Own
[43-40-34-31-31]
---------------------------------------------------------------------------------------------------------
Image Image
32 23 10Biffy ClyroWolves Of Winter
[48-46-46-45-38-21-19-19-23-32]
---------------------------------------------------------------------------------------------------------
Image Image
33 29 16Mystery JetsTelomere
[45-35-27-17-14-11-9-9-12-12-14-18-21-24-29-33]
---------------------------------------------------------------------------------------------------------
Image Image
34 28 11Peter Bjorn and JohnWhat You Talking About?
[46-37-33-31-31-30-27-27-30-28-34]
---------------------------------------------------------------------------------------------------------
Image Image
35 45 02EditorsForgiveness
[45-35]
---------------------------------------------------------------------------------------------------------
Image Image
36 38 16The LumineersOphelia
[38-20-14-8-7-9-10-15-18-22-19-17-22-32-38-36]
---------------------------------------------------------------------------------------------------------
Image Image
37 47 03James BlakeI Need A Forest Fire (Featuring Bon Iver)
[48-47-37]
---------------------------------------------------------------------------------------------------------
Image Image
38 33 19ElisaNo Hero
[2-2-2-1-1-2-3-2-2-3-1-5-5-11-16-24-29-33-38]
---------------------------------------------------------------------------------------------------------
Image Image
39 32 13ZaynIt's You
[50-46-40-34-25-19-17-12-8-15-25-32-39]
---------------------------------------------------------------------------------------------------------
Image Image
40 36 09DNCECake By The Ocean
[48-41-21-16-10-17-28-36-40]
---------------------------------------------------------------------------------------------------------
Image Image
41 00 01Richard AshcroftThis Is How It Feels
[41]
---------------------------------------------------------------------------------------------------------
Image Image
42 35 17FoalsBirch Tree
[39-36-36-31-15-6-4-5-7-9-13-13-14-20-26-35-42]
---------------------------------------------------------------------------------------------------------
Image Image
43 44 18ColdplayHymn For The Weekend
[30-18-10-4-3-1-1-1-2-5-6-14-18-23-31-38-44-43]
---------------------------------------------------------------------------------------------------------
Image Image
44 40 14Catfish and the BottlemenSoundcheck
[49-41-38-28-25-24-24-23-22-24-28-36-40-44]
---------------------------------------------------------------------------------------------------------
Image Image
45 39 14FKA twigsGood To Love
[34-14-10-7-7-8-13-16-20-26-30-33-39-45]
---------------------------------------------------------------------------------------------------------
Image Image
46 50 02All SaintsThis Is A War
[50-46]
---------------------------------------------------------------------------------------------------------
Image Image
47 00 01Peter Bjorn and JohnDominos
[47]
---------------------------------------------------------------------------------------------------------
Image Image
48 41 18SiaUnstoppable
[21-4-3-2-1-2-3-3-6-6-10-15-17-19-25-31-41-48]
---------------------------------------------------------------------------------------------------------
Image Image
49 46 20David BowieLazarus
[1-1-1-1-2-3-4-4-9-13-16-19-25-29-32-37-38-41-46-49]
---------------------------------------------------------------------------------------------------------
Image Image
50 00 01Corinne Bailey RaeThe Skies Will Break
[50]
---------------------------------------------------------------------------------------------------------
OUT
---------------------------------------------------------------------------------------------------------
42 15Skunk AnansieDeath To The Lovers
[43-40-35-33-29-23-26-22-26-24-23-29-29-37-42]
---------------------------------------------------------------------------------------------------------
43 04DrakeOne Dance (Featuring Wizkid & Kyla)
[45-44-43-43]
---------------------------------------------------------------------------------------------------------
48 16Turin BrakesKeep Me Around
[45-39-31-22-19-17-15-15-17-21-18-21-25-32-40-48]
---------------------------------------------------------------------------------------------------------
49 01Janet JacksonDammn Baby
[49]
---------------------------------------------------------------------------------------------------------
Last edited by LittleArsonist on Thu Jun 09, 2016 7:30 pm, edited 2 times in total.
User avatar
LittleArsonist
Personal Assistant
 
Posts: 940
Joined: Wed Jan 14, 2004

Postby Tansike » Wed Jun 01, 2016 1:38 pm

LittleArsonist wrote:love it too...this week I should have seen her....but was so unlucky with tickets :cry:
Oh sorry to hear this. I'm sure she'll do another tour sooner or later, so i hope you'll be able to get a ticket for that one then :)

Great to see Alicia reaching the Top20. I'm surprised "In Common" isn't a hit yet for her, should be big...
Also love to see Birdy reaching a new peak with "Wild Horses" this week. The whole album has been a huge grower for me. It's a mystery to me how both singles weren't hits for her.
User avatar
Tansike
Legend
 
Posts: 44379
Joined: Sat Jan 28, 2012
Location: Switzerland

Postby LittleArsonist » Thu Jun 02, 2016 9:28 am

Tansike wrote:Oh sorry to hear this. I'm sure she'll do another tour sooner or later, so i hope you'll be able to get a ticket for that one then :)
hope you are right! :oops: :cry:

Tansike wrote:Great to see Alicia reaching the Top20. I'm surprised "In Common" isn't a hit yet for her, should be big...
Also love to see Birdy reaching a new peak with "Wild Horses" this week. The whole album has been a huge grower for me. It's a mystery to me how both singles weren't hits for her.
We seem to feel the same way about music every time. I couldn't agree more with both statements you made 8-) :wink:
User avatar
LittleArsonist
Personal Assistant
 
Posts: 940
Joined: Wed Jan 14, 2004

Postby LittleArsonist » Thu Jun 02, 2016 11:12 am

cover
[TW] (WI)
artist
track title
[chartrun]
---------------------------------------------------------------------------------------------------------
50:иgѕ (23/52) - week ending June 5
---------------------------------------------------------------------------------------------------------

---------------------------------------------------------------------------------------------------------
Image Image
01 03 05Tom OdellConstellations
[46-20-9-3-1]
---------------------------------------------------------------------------------------------------------
Image Image
02 01 05RadioheadBurn The Witch
[1-1-1-1-2]
---------------------------------------------------------------------------------------------------------
Image Image
03 02 03AdeleSend My Love (To Your New Lover)
[2-2-3]
---------------------------------------------------------------------------------------------------------
Image Image
04 05 04Justin TimberlakeCan't Stop The Feeling!
[50-20-5-4]
---------------------------------------------------------------------------------------------------------
Image Image
05 11 08RihannaKiss It Better
[47-41-31-23-22-16-11-5]
---------------------------------------------------------------------------------------------------------
Image Image
06 04 05Chelsea JadeLow Brow
[2-3-3-4-6]
---------------------------------------------------------------------------------------------------------
Image Image
07 07 09Ruth BLost Boy
[42-38-15-2-4-6-4-7-7]
---------------------------------------------------------------------------------------------------------
Image Image
08 06 04Red Hot Chili PeppersDark Necessities
[2-5-6-8]
---------------------------------------------------------------------------------------------------------
Image Image
09 10 05ColdplayUp&Up
[26-14-10-10-9]
---------------------------------------------------------------------------------------------------------
Image Image
10 20 05Alicia KeysIn Common
[50-44-26-20-10]
---------------------------------------------------------------------------------------------------------
Image Image
11 08 04RadioheadDaydreaming
[5-7-8-11]
---------------------------------------------------------------------------------------------------------
Image Image
12 09 07Tom OdellMagnetised
[40-22-5-4-6-9-12]
---------------------------------------------------------------------------------------------------------
Image Image
13 12 09Tom OdellWrong Crowd
[2-1-1-1-3-7-8-12-13]
---------------------------------------------------------------------------------------------------------
Image Image
14 13 08Frightened RabbitGet Out
[43-25-15-12-12-13-13-14]
---------------------------------------------------------------------------------------------------------
Image Image
15 15 11twenty one pilotsRide
[36-18-14-11-10-11-7-10-12-15-15]
---------------------------------------------------------------------------------------------------------
Image Image
16 17 04ElisaLove Me Forever
[23-22-17-16]
---------------------------------------------------------------------------------------------------------
Image Image
17 27 05Catfish and the Bottlemen7
[36-27-25-27-17]
---------------------------------------------------------------------------------------------------------
Image Image
18 16 11James BayRunning (Live from Abbey Road Studios / 2016)
[17-2-1-3-2-4-8-13-14-16-18]
---------------------------------------------------------------------------------------------------------
Image Image
19 18 09RihannaNeeded Me
[40-34-26-20-18-16-17-18-19]
---------------------------------------------------------------------------------------------------------
Image Image
20 21 03The 1975A Change Of Heart
[30-21-20]
---------------------------------------------------------------------------------------------------------
Image Image
21 29 09RY XDeliverance
[15-10-6-5-11-15-19-29-21]
---------------------------------------------------------------------------------------------------------
Image Image
22 26 13RY XOnly
[45-16-14-13-11-9-9-13-16-18-24-26-22]
---------------------------------------------------------------------------------------------------------
Image Image
23 25 09BirdyWild Horses
[49 // 46-42-39-35-35-34-25-23]
---------------------------------------------------------------------------------------------------------
Image Image
24 14 10M83Solitude
[11-4-4-4-7-10-11-18-14-24]
---------------------------------------------------------------------------------------------------------
Image Image
25 19 10James BayBest Fake Smile
[27-20-8-5-3-6-9-11-19-25]
---------------------------------------------------------------------------------------------------------
Image Image
26 00 01SiaUnforgettable
[26]
---------------------------------------------------------------------------------------------------------
Image Image
27 22 02RadioheadSpectre
[22-27]
---------------------------------------------------------------------------------------------------------
Image Image
28 30 07P!nkJust Like Fire
[49-40-41-39-37-30-28]
---------------------------------------------------------------------------------------------------------
Image Image
29 24 17FoxesDevil Side
[40-25-18-16-11-10-1-3-3-2-3-6-9-8-15-24-29]
---------------------------------------------------------------------------------------------------------
Image Image
30 31 06Calum ScottDancing On My Own
[43-40-34-31-31-30]
---------------------------------------------------------------------------------------------------------
Image Image
31 23 13Alessia CaraWild Things
[41-20-20-14-7-7-7-12-14-17-21-23-31]
---------------------------------------------------------------------------------------------------------
Image Image
32 28 13Kelly ClarksonPiece By Piece (Idol Version)
[8-5-4-11-8-6-8-9-13-21-27-28-32]
---------------------------------------------------------------------------------------------------------
Image Image
33 33 17Mystery JetsTelomere
[45-35-27-17-14-11-9-9-12-12-14-18-21-24-29-33-33]
---------------------------------------------------------------------------------------------------------
Image Image
34 34 12Peter Bjorn and JohnWhat You Talking About?
[46-37-33-31-31-30-27-27-30-28-34-34]
---------------------------------------------------------------------------------------------------------
Image Image
35 36 17The LumineersOphelia
[38-20-14-8-7-9-10-15-18-22-19-17-22-32-38-36-35]
---------------------------------------------------------------------------------------------------------
Image Image
36 41 02Richard AshcroftThis Is How It Feels
[41-36]
---------------------------------------------------------------------------------------------------------
Image Image
37 37 04James BlakeI Need A Forest Fire (Featuring Bon Iver)
[48-47-37-37]
---------------------------------------------------------------------------------------------------------
Image Image
38 32 11Biffy ClyroWolves Of Winter
[48-46-46-45-38-21-19-19-23-32-38]
---------------------------------------------------------------------------------------------------------
Image Image
39 40 10DNCECake By The Ocean
[48-41-21-16-10-17-28-36-40-39]
---------------------------------------------------------------------------------------------------------
Image Image
40 00 01DrakeToo Good (Featuring Rihanna)
[40]
---------------------------------------------------------------------------------------------------------
Image Image
41 46 03All SaintsThis Is A War
[50-46-41]
---------------------------------------------------------------------------------------------------------
Image Image
42 35 03EditorsForgiveness
[45-35-42]
---------------------------------------------------------------------------------------------------------
Image Image
43 42 18FoalsBirch Tree
[39-36-36-31-15-6-4-5-7-9-13-13-14-20-26-35-42-43]
---------------------------------------------------------------------------------------------------------
Image Image
44 44 15Catfish and the BottlemenSoundcheck
[49-41-38-28-25-24-24-23-22-24-28-36-40-44-44]
---------------------------------------------------------------------------------------------------------
Image Image
45 45 15FKA twigsGood To Love
[34-14-10-7-7-8-13-16-20-26-30-33-39-45-45]
---------------------------------------------------------------------------------------------------------
Image Image
46 38 20ElisaNo Hero
[2-2-2-1-1-2-3-2-2-3-1-5-5-11-16-24-29-33-38-46]
---------------------------------------------------------------------------------------------------------
Image Image
47 00 01Guy GarveyOpen The Door
[47]
---------------------------------------------------------------------------------------------------------
Image Image
48 43 19ColdplayHymn For The Weekend
[30-18-10-4-3-1-1-1-2-5-6-14-18-23-31-38-44-43-48]
---------------------------------------------------------------------------------------------------------
Image Image
49 39 14ZaynIt's You
[50-46-40-34-25-19-17-12-8-15-25-32-39-49]
---------------------------------------------------------------------------------------------------------
Image Image
50 00 05DrakeOne Dance (Featuring Wizkid & Kyla)
[45-44-43-43 // 50]
---------------------------------------------------------------------------------------------------------
OUT
---------------------------------------------------------------------------------------------------------
47 01Peter Bjorn and JohnDominos
[47]
---------------------------------------------------------------------------------------------------------
48 18SiaUnstoppable
[21-4-3-2-1-2-3-3-6-6-10-15-17-19-25-31-41-48]
---------------------------------------------------------------------------------------------------------
49 20David BowieLazarus
[1-1-1-1-2-3-4-4-9-13-16-19-25-29-32-37-38-41-46-49]
---------------------------------------------------------------------------------------------------------
50 01Corinne Bailey RaeThe Skies Will Break
[50]
---------------------------------------------------------------------------------------------------------
Last edited by LittleArsonist on Thu Jun 09, 2016 7:30 pm, edited 1 time in total.
User avatar
LittleArsonist
Personal Assistant
 
Posts: 940
Joined: Wed Jan 14, 2004

Postby Tansike » Wed Jun 08, 2016 9:08 am

This week we're finally getting Tom Odell's album - i'm already pretty excited. Hope he doesn't disappoint, and i can't wait to hear all the songs i haven't heard so far :)

Really like the debuts for Drake this week. His album is surprisingly good, with "One Dance" and "Too Good" being the clear highlights for me. It wouldn't surprise me if "Too Good" becomes another smash hit for both :)
User avatar
Tansike
Legend
 
Posts: 44379
Joined: Sat Jan 28, 2012
Location: Switzerland

Postby LittleArsonist » Thu Jun 09, 2016 5:09 pm

Tansike wrote:This week we're finally getting Tom Odell's album - i'm already pretty excited. Hope he doesn't disappoint, and i can't wait to hear all the songs i haven't heard so far :)
oh yeahhhhhhhhh! I'm so looking forward to hearing it :o

Really like the debuts for Drake this week. His album is surprisingly good, with "One Dance" and "Too Good" being the clear highlights for me. It wouldn't surprise me if "Too Good" becomes another smash hit for both :)
my fav track for sure! I like how digital/streaming scenario is somehow deciding what songs to become "singles" nowadays.... for some artists it really works! :D
User avatar
LittleArsonist
Personal Assistant
 
Posts: 940
Joined: Wed Jan 14, 2004

Return to Personal Charts