50:иgѕ w/e November 4 - still loving

Moderators: JSparksFan, tdc2000, FreakyFlyBry

 

Postby Tansike » Wed Jul 13, 2016 6:05 am

LittleArsonist wrote:
Tansike wrote:Also love Rihanna's debut this week. "Sledgehammer" is the first single from her that i really, really like since "Stay" :oops:
guess who wrote it? :D
Sia! :) That's not difficult to guess though cause the song sounds like it's sung by Sia, doesn't it? :) But i like it :)

So yeah very happy for that huge increase for "Sledgehammer". Also nice debut for Twenty One Pilots' "Heathens", which is surprisingly good. I had no idea what to expect when i checked it out though but i'm glad it's that good. :)
User avatar
Tansike
Legend
 
Posts: 44818
Joined: Sat Jan 28, 2012
Location: Switzerland

Postby LittleArsonist » Thu Jul 14, 2016 9:27 pm

Tansike wrote:Sia! :) That's not difficult to guess though cause the song sounds like it's sung by Sia, doesn't it? :) But i like it :)
so true :lol: :lol: :lol:

Also nice debut for Twenty One Pilots' "Heathens", which is surprisingly good. I had no idea what to expect when i checked it out though but i'm glad it's that good. :)
yep! good track indeed 8-)
User avatar
LittleArsonist
Personal Assistant
 
Posts: 946
Joined: Wed Jan 14, 2004

Postby LittleArsonist » Thu Jul 14, 2016 9:56 pm

cover
[TW] (WI)
artist
track title
[chartrun]
---------------------------------------------------------------------------------------------------------
50:иgѕ (29/52) - week ending July 17
---------------------------------------------------------------------------------------------------------

---------------------------------------------------------------------------------------------------------
Image Image
01 01 04HozierBetter Love
[30-11-1-1]
---------------------------------------------------------------------------------------------------------
Image Image
02 14 03RihannaSledgehammer
[36-14-2]
---------------------------------------------------------------------------------------------------------
Image Image
03 03 12Calum ScottDancing On My Own
[43-40-34-31-31-30-43-25-24-5-3-3]
---------------------------------------------------------------------------------------------------------
Image Image
04 02 06kiiaraGold
[49-30-4-2-2-4]
---------------------------------------------------------------------------------------------------------
Image Image
05 05 11ColdplayUp&Up
[26-14-10-10-9-3-1-1-3-5-5]
---------------------------------------------------------------------------------------------------------
Image Image
06 04 11Tom OdellConstellations
[46-20-9-3-1-1-2-2-1-4-6]
---------------------------------------------------------------------------------------------------------
Image Image
07 06 10Justin TimberlakeCan't Stop The Feeling!
[50-20-5-4-6-5-5-4-6-7]
---------------------------------------------------------------------------------------------------------
Image Image
08 13 04Christina AguileraChange
[34-16-13-8]
---------------------------------------------------------------------------------------------------------
Image Image
09 08 09The 1975A Change Of Heart
[30-21-20-14-11-9-10-8-9]
---------------------------------------------------------------------------------------------------------
Image Image
10 07 11RadioheadBurn The Witch
[1-1-1-1-2-2-3-3-6-7-10]
---------------------------------------------------------------------------------------------------------
Image Image
11 10 13Tom OdellMagnetised
[40-22-5-4-6-9-12-8-10-7-7-10-11]
---------------------------------------------------------------------------------------------------------
Image Image
12 11 09AdeleSend My Love (To Your New Lover)
[2-2-3-4-4-8-12-11-12]
---------------------------------------------------------------------------------------------------------
Image Image
13 12 14RihannaKiss It Better
[47-41-31-23-22-16-11-5-5-7-6-8-12-13]
---------------------------------------------------------------------------------------------------------
Image Image
14 20 04Rob ThomasPieces
[49-38-20-14]
---------------------------------------------------------------------------------------------------------
Image Image
15 09 07DrakeToo Good (Featuring Rihanna)
[40-27-19-17-9-9-15]
---------------------------------------------------------------------------------------------------------
Image Image
16 17 07Guy GarveyOpen The Door
[47-40-28-25-20-17-16]
---------------------------------------------------------------------------------------------------------
Image Image
17 19 04BastilleGood Grief
[38-23-19-17]
---------------------------------------------------------------------------------------------------------
Image Image
18 16 11Chelsea JadeLow Brow
[2-3-3-4-6-7-9-11-13-16-18]
---------------------------------------------------------------------------------------------------------
Image Image
19 15 15Tom OdellWrong Crowd
[2-1-1-1-3-7-8-12-13-11-13-14-15-15-19]
---------------------------------------------------------------------------------------------------------
Image Image
20 18 10Red Hot Chili PeppersDark Necessities
[2-5-6-8-15-16-10-14-18-20]
---------------------------------------------------------------------------------------------------------
Image Image
21 29 06Mystery JetsBombay Blue
[47-39-35-32-29-21]
---------------------------------------------------------------------------------------------------------
Image Image
22 28 04The KillsDoing It To Death
[46-33-28-22]
---------------------------------------------------------------------------------------------------------
Image Image
23 24 06BeckWow
[37-24-21-22-24-23]
---------------------------------------------------------------------------------------------------------
Image Image
24 21 06Richard AshcroftHold On
[45-21-18-19-21-24]
---------------------------------------------------------------------------------------------------------
Image Image
25 35 03Christine and the QueensTilted
[44-35-25]
---------------------------------------------------------------------------------------------------------
Image Image
26 22 15Ruth BLost Boy
[42-38-15-2-4-6-4-7-7-13-14-15-17-22-26]
---------------------------------------------------------------------------------------------------------
Image Image
27 25 14Frightened RabbitGet Out
[43-25-15-12-12-13-13-14-16-18-22-25-25-27]
---------------------------------------------------------------------------------------------------------
Image Image
28 30 08RadioheadSpectre
[22-27-19-27-27-28-30-28]
---------------------------------------------------------------------------------------------------------
Image Image
29 23 17twenty one pilotsRide
[36-18-14-11-10-11-7-10-12-15-15-17-15-13-18-23-29]
---------------------------------------------------------------------------------------------------------
Image Image
30 26 11Catfish and the Bottlemen7
[36-27-25-27-17-12-12-20-24-26-30]
---------------------------------------------------------------------------------------------------------
Image Image
31 41 02twenty one pilotsHeathens
[41-31]
---------------------------------------------------------------------------------------------------------
Image Image
32 38 03PassengerSomebody's Love
[46-38-32]
---------------------------------------------------------------------------------------------------------
Image Image
33 31 05GarbageEmpty
[41-33-30-31-33]
---------------------------------------------------------------------------------------------------------
Image Image
34 27 11Alicia KeysIn Common
[50-44-26-20-10-9-6-12-21-27-34]
---------------------------------------------------------------------------------------------------------
Image Image
35 40 05The Temper TrapFall Together
[49-45-41-40-35]
---------------------------------------------------------------------------------------------------------
Image Image
36 34 10RadioheadDaydreaming
[5-7-8-11-18-22-29-31-34-36]
---------------------------------------------------------------------------------------------------------
Image Image
37 32 13P!nkJust Like Fire
[49-40-41-39-37-30-28-25-17-19-29-32-37]
---------------------------------------------------------------------------------------------------------
Image Image
38 36 10ElisaLove Me Forever
[23-22-17-16-10-8-16-27-36-38]
---------------------------------------------------------------------------------------------------------
Image Image
39 33 15BirdyWild Horses
[49 // 46-42-39-35-35-34-25-23-23-23-23-26-33-39]
---------------------------------------------------------------------------------------------------------
Image Image
40 37 06PJ HarveyThe Community Of Hope
[41-33-32-35-37-40]
---------------------------------------------------------------------------------------------------------
Image Image
41 00 01Biffy ClyroAnimal Style
[41]
---------------------------------------------------------------------------------------------------------
Image Image
42 42 17James BayRunning (Live from Abbey Road Studios / 2016)
[17-2-1-3-2-4-8-13-14-16-18-26-36-40-45-42-42]
---------------------------------------------------------------------------------------------------------
Image Image
43 39 15RY XDeliverance
[15-10-6-5-11-15-19-29-21-20-26-28-34-39-43]
---------------------------------------------------------------------------------------------------------
Image Image
44 44 07SiaUnforgettable
[26-22-20-26-37-44-44]
---------------------------------------------------------------------------------------------------------
Image Image
45 48 03Sigur RósÓveður
[50-48-45]
---------------------------------------------------------------------------------------------------------
Image Image
46 47 03Kanye WestFamous
[49-47-46]
---------------------------------------------------------------------------------------------------------
Image Image
47 46 08Richard AshcroftThis Is How It Feels
[41-36-35-34-37-42-46-47]
---------------------------------------------------------------------------------------------------------
Image Image
48 49 16James BayBest Fake Smile
[27-20-8-5-3-6-9-11-19-25-29-38-42-43-49-48]
---------------------------------------------------------------------------------------------------------
Image Image
49 43 09All SaintsThis Is A War
[50-46-41-36-35-36-39-43-49]
---------------------------------------------------------------------------------------------------------
Image Image
50 45 19RY XOnly
[45-16-14-13-11-9-9-13-16-18-24-26-22-21-29-31-40-45-50]
---------------------------------------------------------------------------------------------------------
OUT
---------------------------------------------------------------------------------------------------------
50 01EditorsAll The Kings
[50]
---------------------------------------------------------------------------------------------------------
User avatar
LittleArsonist
Personal Assistant
 
Posts: 946
Joined: Wed Jan 14, 2004

Postby Tansike » Wed Jul 20, 2016 5:57 am

Woah, what a fantastic climb for "Sledgehammer", but definitely well deserved! Very happy to see it being so successful on your charts :D

Birdy's longevity for "Wild Horses" is quite impressive as she didn't reach the Top20. What do you think about "Words" being the third single? I'm disappointed by that choice :( :oops:
User avatar
Tansike
Legend
 
Posts: 44818
Joined: Sat Jan 28, 2012
Location: Switzerland

Postby LittleArsonist » Thu Jul 21, 2016 5:34 pm

Tansike wrote:What do you think about "Words" being the third single? I'm disappointed by that choice :( :oops:
not happy with the choice as well :roll:
User avatar
LittleArsonist
Personal Assistant
 
Posts: 946
Joined: Wed Jan 14, 2004

Postby LittleArsonist » Thu Jul 21, 2016 9:21 pm

cover
[TW] (WI)
artist
track title
[chartrun]
---------------------------------------------------------------------------------------------------------
50:иgѕ (30/52) - week ending July 24
---------------------------------------------------------------------------------------------------------

---------------------------------------------------------------------------------------------------------
Image Image
01 01 05HozierBetter Love
[30-11-1-1-1]
---------------------------------------------------------------------------------------------------------
Image Image
02 02 04RihannaSledgehammer
[36-14-2-2]
---------------------------------------------------------------------------------------------------------
Image Image
03 03 13Calum ScottDancing On My Own
[43-40-34-31-31-30-43-25-24-5-3-3-3]
---------------------------------------------------------------------------------------------------------
Image Image
04 14 05Rob ThomasPieces
[49-38-20-14-4]
---------------------------------------------------------------------------------------------------------
Image Image
05 06 12Tom OdellConstellations
[46-20-9-3-1-1-2-2-1-4-6-5]
---------------------------------------------------------------------------------------------------------
Image Image
06 05 12ColdplayUp&Up
[26-14-10-10-9-3-1-1-3-5-5-6]
---------------------------------------------------------------------------------------------------------
Image Image
07 04 07kiiaraGold
[49-30-4-2-2-4-7]
---------------------------------------------------------------------------------------------------------
Image Image
08 08 05Christina AguileraChange
[34-16-13-8-8]
---------------------------------------------------------------------------------------------------------
Image Image
09 07 11Justin TimberlakeCan't Stop The Feeling!
[50-20-5-4-6-5-5-4-6-7-9]
---------------------------------------------------------------------------------------------------------
Image Image
10 00 01Katy PerryRise
[10]
---------------------------------------------------------------------------------------------------------
Image Image
11 10 12RadioheadBurn The Witch
[1-1-1-1-2-2-3-3-6-7-10-11]
---------------------------------------------------------------------------------------------------------
Image Image
12 17 05BastilleGood Grief
[38-23-19-17-12]
---------------------------------------------------------------------------------------------------------
Image Image
13 16 08Guy GarveyOpen The Door
[47-40-28-25-20-17-16-13]
---------------------------------------------------------------------------------------------------------
Image Image
14 09 10The 1975A Change Of Heart
[30-21-20-14-11-9-10-8-9-14]
---------------------------------------------------------------------------------------------------------
Image Image
15 12 10AdeleSend My Love (To Your New Lover)
[2-2-3-4-4-8-12-11-12-15]
---------------------------------------------------------------------------------------------------------
Image Image
16 11 14Tom OdellMagnetised
[40-22-5-4-6-9-12-8-10-7-7-10-11-16]
---------------------------------------------------------------------------------------------------------
Image Image
17 31 03twenty one pilotsHeathens
[41-31-17]
---------------------------------------------------------------------------------------------------------
Image Image
18 13 15RihannaKiss It Better
[47-41-31-23-22-16-11-5-5-7-6-8-12-13-18]
---------------------------------------------------------------------------------------------------------
Image Image
19 25 04Christine and the QueensTilted
[44-35-25-19]
---------------------------------------------------------------------------------------------------------
Image Image
20 00 01Alessia CaraScars To Your Beautiful
[20]
---------------------------------------------------------------------------------------------------------
Image Image
21 22 05The KillsDoing It To Death
[46-33-28-22-21]
---------------------------------------------------------------------------------------------------------
Image Image
22 15 08DrakeToo Good (Featuring Rihanna)
[40-27-19-17-9-9-15-22]
---------------------------------------------------------------------------------------------------------
Image Image
23 21 07Mystery JetsBombay Blue
[47-39-35-32-29-21-23]
---------------------------------------------------------------------------------------------------------
Image Image
24 19 16Tom OdellWrong Crowd
[2-1-1-1-3-7-8-12-13-11-13-14-15-15-19-24]
---------------------------------------------------------------------------------------------------------
Image Image
25 18 12Chelsea JadeLow Brow
[2-3-3-4-6-7-9-11-13-16-18-25]
---------------------------------------------------------------------------------------------------------
Image Image
26 28 09RadioheadSpectre
[22-27-19-27-27-28-30-28-26]
---------------------------------------------------------------------------------------------------------
Image Image
27 24 07Richard AshcroftHold On
[45-21-18-19-21-24-27]
---------------------------------------------------------------------------------------------------------
Image Image
28 20 11Red Hot Chili PeppersDark Necessities
[2-5-6-8-15-16-10-14-18-20-28]
---------------------------------------------------------------------------------------------------------
Image Image
29 32 04PassengerSomebody's Love
[46-38-32-29]
---------------------------------------------------------------------------------------------------------
Image Image
30 23 07BeckWow
[37-24-21-22-24-23-30]
---------------------------------------------------------------------------------------------------------
Image Image
31 30 12Catfish and the Bottlemen7
[36-27-25-27-17-12-12-20-24-26-30-31]
---------------------------------------------------------------------------------------------------------
Image Image
32 35 06The Temper TrapFall Together
[49-45-41-40-35-32]
---------------------------------------------------------------------------------------------------------
Image Image
33 26 16Ruth BLost Boy
[42-38-15-2-4-6-4-7-7-13-14-15-17-22-26-33]
---------------------------------------------------------------------------------------------------------
Image Image
34 00 01Banks**** With Myself
[34]
---------------------------------------------------------------------------------------------------------
Image Image
35 29 18twenty one pilotsRide
[36-18-14-11-10-11-7-10-12-15-15-17-15-13-18-23-29-35]
---------------------------------------------------------------------------------------------------------
Image Image
36 00 01Ben RectorBrand New
[36]
---------------------------------------------------------------------------------------------------------
Image Image
37 27 15Frightened RabbitGet Out
[43-25-15-12-12-13-13-14-16-18-22-25-25-27-37]
---------------------------------------------------------------------------------------------------------
Image Image
38 36 11RadioheadDaydreaming
[5-7-8-11-18-22-29-31-34-36-38]
---------------------------------------------------------------------------------------------------------
Image Image
39 41 02Biffy ClyroAnimal Style
[41-39]
---------------------------------------------------------------------------------------------------------
Image Image
40 33 06GarbageEmpty
[41-33-30-31-33-40]
---------------------------------------------------------------------------------------------------------
Image Image
41 00 01PJ HarveyGuilty
[41]
---------------------------------------------------------------------------------------------------------
Image Image
42 37 14P!nkJust Like Fire
[49-40-41-39-37-30-28-25-17-19-29-32-37-42]
---------------------------------------------------------------------------------------------------------
Image Image
43 34 12Alicia KeysIn Common
[50-44-26-20-10-9-6-12-21-27-34-43]
---------------------------------------------------------------------------------------------------------
Image Image
44 00 01KT TunstallMaybe It's A Good Thing
[44]
---------------------------------------------------------------------------------------------------------
Image Image
45 38 11ElisaLove Me Forever
[23-22-17-16-10-8-16-27-36-38-45]
---------------------------------------------------------------------------------------------------------
Image Image
46 00 01AWOLNATIONRun (Beautiful Things)
[46]
---------------------------------------------------------------------------------------------------------
Image Image
47 00 01DNCEToothbrush
[47]
---------------------------------------------------------------------------------------------------------
Image Image
48 39 16BirdyWild Horses
[49 // 46-42-39-35-35-34-25-23-23-23-23-26-33-39-48]
---------------------------------------------------------------------------------------------------------
Image Image
49 00 01Gavin DeGrawShe Sets The City On Fire
[49]
---------------------------------------------------------------------------------------------------------
Image Image
50 00 01Britney SpearsMake Me... (Featuring G-Eazy)
[50]
---------------------------------------------------------------------------------------------------------
OUT
---------------------------------------------------------------------------------------------------------
40 06PJ HarveyThe Community Of Hope
[41-33-32-35-37-40]
---------------------------------------------------------------------------------------------------------
42 17James BayRunning (Live from Abbey Road Studios / 2016)
[17-2-1-3-2-4-8-13-14-16-18-26-36-40-45-42-42]
---------------------------------------------------------------------------------------------------------
43 15RY XDeliverance
[15-10-6-5-11-15-19-29-21-20-26-28-34-39-43]
---------------------------------------------------------------------------------------------------------
44 07SiaUnforgettable
[26-22-20-26-37-44-44]
---------------------------------------------------------------------------------------------------------
45 03Sigur RósÓveður
[50-48-45]
---------------------------------------------------------------------------------------------------------
46 03Kanye WestFamous
[49-47-46]
---------------------------------------------------------------------------------------------------------
47 08Richard AshcroftThis Is How It Feels
[41-36-35-34-37-42-46-47]
---------------------------------------------------------------------------------------------------------
48 16James BayBest Fake Smile
[27-20-8-5-3-6-9-11-19-25-29-38-42-43-49-48]
---------------------------------------------------------------------------------------------------------
49 09All SaintsThis Is A War
[50-46-41-36-35-36-39-43-49]
---------------------------------------------------------------------------------------------------------
50 19RY XOnly
[45-16-14-13-11-9-9-13-16-18-24-26-22-21-29-31-40-45-50]
---------------------------------------------------------------------------------------------------------
User avatar
LittleArsonist
Personal Assistant
 
Posts: 946
Joined: Wed Jan 14, 2004

Postby Tansike » Wed Jul 27, 2016 5:15 am

LittleArsonist wrote:
Tansike wrote:What do you think about "Words" being the third single? I'm disappointed by that choice :( :oops:
not happy with the choice as well :roll:
Which would you have picked? My choice would have been "Shadows" easily, or the opener...

Some great debuts this week with Katy, Banks, DNCE and Britney. I hope the latter will climb a bit, as it's probably my fave out of them all.
Also great to see "Heathens" by twenty one pilots jumping a lot this week. Great song :D
User avatar
Tansike
Legend
 
Posts: 44818
Joined: Sat Jan 28, 2012
Location: Switzerland

Postby navi » Wed Jul 27, 2016 12:06 pm

Rector released his sixth studio album Brand New on August 28, 2015 via Aptly Named Recordings. The album debuted No. 9 on the Billboard 200 chart, moving 26,000 units and marking his biggest sales week to date and his first Top 10 album.
and i never heard of :oops:
Along with PJ, the best new entry of
10 (usually enough for a whole month :wink: )
My year(s) in lists by Ivan (2008 - 2013)
User avatar
navi
Legend
 
Posts: 10301
Joined: Wed Aug 14, 2013
Location: Zagreb/Croatia

Postby heppolo » Wed Jul 27, 2016 12:30 pm

13 16 08 • Guy Garvey • Open The Door
Hope it will go top 10
Waffles are checked cookies
User avatar
heppolo
Legend
 
Posts: 23209
Joined: Sun May 17, 2009
Location: interchangeable

Postby LittleArsonist » Fri Jul 29, 2016 11:28 am

Tansike wrote:
LittleArsonist wrote:
Tansike wrote:What do you think about "Words" being the third single? I'm disappointed by that choice :( :oops:
not happy with the choice as well :roll:
Which would you have picked? My choice would have been "Shadows" easily, or the opener...

Some great debuts this week with Katy, Banks, DNCE and Britney. I hope the latter will climb a bit, as it's probably my fave out of them all.
Also great to see "Heathens" by twenty one pilots jumping a lot this week. Great song :D
it was a revolutionary week ahhahahaaha so many new songs ..especially pop mainstream ones which usually don't appear in my chart but in summer we all become pop whores :lol:

Shadows would have been a perfect single, I strongly agree with you!! :)
User avatar
LittleArsonist
Personal Assistant
 
Posts: 946
Joined: Wed Jan 14, 2004

Postby LittleArsonist » Fri Jul 29, 2016 11:30 am

navi wrote:
Rector released his sixth studio album Brand New on August 28, 2015 via Aptly Named Recordings. The album debuted No. 9 on the Billboard 200 chart, moving 26,000 units and marking his biggest sales week to date and his first Top 10 album.
and i never heard of :oops:
Along with PJ, the best new entry of
10 (usually enough for a whole month :wink: )
heard of him casually when listening to Billboard charts and got hooked by the song...still need to listen to the whole album

love the voice :)

yea 10 enough for a month :lol: this week will be less eventful ahah
User avatar
LittleArsonist
Personal Assistant
 
Posts: 946
Joined: Wed Jan 14, 2004

Postby LittleArsonist » Fri Jul 29, 2016 11:36 am

heppolo wrote:
13 16 08 • Guy Garvey • Open The Door
Hope it will go top 10
was wise to not buy his album before this re-release with this song added :lol:
User avatar
LittleArsonist
Personal Assistant
 
Posts: 946
Joined: Wed Jan 14, 2004

Postby LittleArsonist » Fri Jul 29, 2016 3:00 pm

cover
[TW] (WI)
artist
track title
[chartrun]
---------------------------------------------------------------------------------------------------------
50:иgѕ (31/52) - week ending July 31
---------------------------------------------------------------------------------------------------------

---------------------------------------------------------------------------------------------------------
Image Image
01 04 06Rob ThomasPieces
[49-38-20-14-4-1]
---------------------------------------------------------------------------------------------------------
Image Image
02 02 05RihannaSledgehammer
[36-14-2-2-2]
---------------------------------------------------------------------------------------------------------
Image Image
03 01 06HozierBetter Love
[30-11-1-1-1-3]
---------------------------------------------------------------------------------------------------------
Image Image
04 12 06BastilleGood Grief
[38-23-19-17-12-4]
---------------------------------------------------------------------------------------------------------
Image Image
05 03 14Calum ScottDancing On My Own
[43-40-34-31-31-30-43-25-24-5-3-3-3-5]
---------------------------------------------------------------------------------------------------------
Image Image
06 07 08kiiaraGold
[49-30-4-2-2-4-7-6]
---------------------------------------------------------------------------------------------------------
Image Image
07 10 02Katy PerryRise
[10-7]
---------------------------------------------------------------------------------------------------------
Image Image
08 05 13Tom OdellConstellations
[46-20-9-3-1-1-2-2-1-4-6-5-8]
---------------------------------------------------------------------------------------------------------
Image Image
09 08 06Christina AguileraChange
[34-16-13-8-8-9]
---------------------------------------------------------------------------------------------------------
Image Image
10 06 13ColdplayUp&Up
[26-14-10-10-9-3-1-1-3-5-5-6-10]
---------------------------------------------------------------------------------------------------------
Image Image
11 17 04twenty one pilotsHeathens
[41-31-17-11]
---------------------------------------------------------------------------------------------------------
Image Image
12 13 09Guy GarveyOpen The Door
[47-40-28-25-20-17-16-13-12]
---------------------------------------------------------------------------------------------------------
Image Image
13 11 13RadioheadBurn The Witch
[1-1-1-1-2-2-3-3-6-7-10-11-13]
---------------------------------------------------------------------------------------------------------
Image Image
14 34 02Banks**** With Myself
[34-14]
---------------------------------------------------------------------------------------------------------
Image Image
15 09 12Justin TimberlakeCan't Stop The Feeling!
[50-20-5-4-6-5-5-4-6-7-9-15]
---------------------------------------------------------------------------------------------------------
Image Image
16 19 05Christine and the QueensTilted
[44-35-25-19-16]
---------------------------------------------------------------------------------------------------------
Image Image
17 20 02Alessia CaraScars To Your Beautiful
[20-17]
---------------------------------------------------------------------------------------------------------
Image Image
18 36 02Ben RectorBrand New
[36-18]
---------------------------------------------------------------------------------------------------------
Image Image
19 14 11The 1975A Change Of Heart
[30-21-20-14-11-9-10-8-9-14-19]
---------------------------------------------------------------------------------------------------------
Image Image
20 00 01Tom OdellConcrete
[20]
---------------------------------------------------------------------------------------------------------
Image Image
21 18 16RihannaKiss It Better
[47-41-31-23-22-16-11-5-5-7-6-8-12-13-18-21]
---------------------------------------------------------------------------------------------------------
Image Image
22 16 15Tom OdellMagnetised
[40-22-5-4-6-9-12-8-10-7-7-10-11-16-22]
---------------------------------------------------------------------------------------------------------
Image Image
23 26 10RadioheadSpectre
[22-27-19-27-27-28-30-28-26-23]
---------------------------------------------------------------------------------------------------------
Image Image
24 23 08Mystery JetsBombay Blue
[47-39-35-32-29-21-23-24]
---------------------------------------------------------------------------------------------------------
Image Image
25 15 11AdeleSend My Love (To Your New Lover)
[2-2-3-4-4-8-12-11-12-15-25]
---------------------------------------------------------------------------------------------------------
Image Image
26 21 06The KillsDoing It To Death
[46-33-28-22-21-26]
---------------------------------------------------------------------------------------------------------
Image Image
27 29 05PassengerSomebody's Love
[46-38-32-29-27]
---------------------------------------------------------------------------------------------------------
Image Image
28 22 09DrakeToo Good (Featuring Rihanna)
[40-27-19-17-9-9-15-22-28]
---------------------------------------------------------------------------------------------------------
Image Image
29 25 13Chelsea JadeLow Brow
[2-3-3-4-6-7-9-11-13-16-18-25-29]
---------------------------------------------------------------------------------------------------------
Image Image
30 24 17Tom OdellWrong Crowd
[2-1-1-1-3-7-8-12-13-11-13-14-15-15-19-24-30]
---------------------------------------------------------------------------------------------------------
Image Image
31 27 08Richard AshcroftHold On
[45-21-18-19-21-24-27-31]
---------------------------------------------------------------------------------------------------------
Image Image
32 32 07The Temper TrapFall Together
[49-45-41-40-35-32-32]
---------------------------------------------------------------------------------------------------------
Image Image
33 28 12Red Hot Chili PeppersDark Necessities
[2-5-6-8-15-16-10-14-18-20-28-33]
---------------------------------------------------------------------------------------------------------
Image Image
34 30 08BeckWow
[37-24-21-22-24-23-30-34]
---------------------------------------------------------------------------------------------------------
Image Image
35 39 03Biffy ClyroAnimal Style
[41-39-35]
---------------------------------------------------------------------------------------------------------
Image Image
36 38 12RadioheadDaydreaming
[5-7-8-11-18-22-29-31-34-36-38-36]
---------------------------------------------------------------------------------------------------------
Image Image
37 31 13Catfish and the Bottlemen7
[36-27-25-27-17-12-12-20-24-26-30-31-37]
---------------------------------------------------------------------------------------------------------
Image Image
38 33 17Ruth BLost Boy
[42-38-15-2-4-6-4-7-7-13-14-15-17-22-26-33-38]
---------------------------------------------------------------------------------------------------------
Image Image
39 37 16Frightened RabbitGet Out
[43-25-15-12-12-13-13-14-16-18-22-25-25-27-37-39]
---------------------------------------------------------------------------------------------------------
Image Image
40 47 02DNCEToothbrush
[47-40]
---------------------------------------------------------------------------------------------------------
Image Image
41 41 02PJ HarveyGuilty
[41-41]
---------------------------------------------------------------------------------------------------------
Image Image
42 44 02KT TunstallMaybe It's A Good Thing
[44-42]
---------------------------------------------------------------------------------------------------------
Image Image
43 49 02Gavin DeGrawShe Sets The City On Fire
[49-43]
---------------------------------------------------------------------------------------------------------
Image Image
44 50 02Britney SpearsMake Me... (Featuring G-Eazy)
[50-44]
---------------------------------------------------------------------------------------------------------
Image Image
45 35 19twenty one pilotsRide
[36-18-14-11-10-11-7-10-12-15-15-17-15-13-18-23-29-35-45]
---------------------------------------------------------------------------------------------------------
Image Image
46 46 02AWOLNATIONRun (Beautiful Things)
[46-46]
---------------------------------------------------------------------------------------------------------
Image Image
47 40 07GarbageEmpty
[41-33-30-31-33-40-47]
---------------------------------------------------------------------------------------------------------
Image Image
48 00 01BeyoncéSorry
[48]
---------------------------------------------------------------------------------------------------------
Image Image
49 00 01Regina SpektorBleeding Heart
[49]
---------------------------------------------------------------------------------------------------------
Image Image
50 00 01Troye SivanWild (Featuring Alessia Cara)
[50]
---------------------------------------------------------------------------------------------------------
OUT
---------------------------------------------------------------------------------------------------------
42 14P!nkJust Like Fire
[49-40-41-39-37-30-28-25-17-19-29-32-37-42]
---------------------------------------------------------------------------------------------------------
43 12Alicia KeysIn Common
[50-44-26-20-10-9-6-12-21-27-34-43]
---------------------------------------------------------------------------------------------------------
45 11ElisaLove Me Forever
[23-22-17-16-10-8-16-27-36-38-45]
---------------------------------------------------------------------------------------------------------
48 16BirdyWild Horses
[49 // 46-42-39-35-35-34-25-23-23-23-23-26-33-39-48]
---------------------------------------------------------------------------------------------------------
Last edited by LittleArsonist on Thu Aug 04, 2016 7:57 pm, edited 1 time in total.
User avatar
LittleArsonist
Personal Assistant
 
Posts: 946
Joined: Wed Jan 14, 2004

Postby Tansike » Wed Aug 03, 2016 6:17 am

Glad you agree on "Shadows"! 8-)

Impressive longevity for Rihanna's "Sledgehammer". Great song that deserved to be much more successful than songs like "Work"...
Also liking the debut for Tom Odell. Haven't heard the "Wild" remix with Alessia, but the original is great.
User avatar
Tansike
Legend
 
Posts: 44818
Joined: Sat Jan 28, 2012
Location: Switzerland

Postby LittleArsonist » Thu Aug 04, 2016 4:44 pm

Tansike wrote:Impressive longevity for Rihanna's "Sledgehammer". Great song that deserved to be much more successful than songs like "Work"...
I strongly agree with you! 8-)

Also liking the debut for Tom Odell.
quite obvious he was going to debut with his new single... love him to bits!

Haven't heard the "Wild" remix with Alessia, but the original is great.
check it and check my #1 too...it's very good
User avatar
LittleArsonist
Personal Assistant
 
Posts: 946
Joined: Wed Jan 14, 2004

Postby LittleArsonist » Thu Aug 04, 2016 7:55 pm

cover
[TW] (WI)
artist
track title
[chartrun]
---------------------------------------------------------------------------------------------------------
50:иgѕ (32/52) - week ending August 7
---------------------------------------------------------------------------------------------------------

---------------------------------------------------------------------------------------------------------
Image Image
01 01 07Rob ThomasPieces
[49-38-20-14-4-1-1]
---------------------------------------------------------------------------------------------------------
Image Image
02 04 07BastilleGood Grief
[38-23-19-17-12-4-2]
---------------------------------------------------------------------------------------------------------
Image Image
03 03 07HozierBetter Love
[30-11-1-1-1-3-3]
---------------------------------------------------------------------------------------------------------
Image Image
04 02 06RihannaSledgehammer
[36-14-2-2-2-4]
---------------------------------------------------------------------------------------------------------
Image Image
05 07 03Katy PerryRise
[10-7-5]
---------------------------------------------------------------------------------------------------------
Image Image
06 05 15Calum ScottDancing On My Own
[43-40-34-31-31-30-43-25-24-5-3-3-3-5-6]
---------------------------------------------------------------------------------------------------------
Image Image
07 11 05twenty one pilotsHeathens
[41-31-17-11-7]
---------------------------------------------------------------------------------------------------------
Image Image
08 06 09kiiaraGold
[49-30-4-2-2-4-7-6-8]
---------------------------------------------------------------------------------------------------------
Image Image
09 08 14Tom OdellConstellations
[46-20-9-3-1-1-2-2-1-4-6-5-8-9]
---------------------------------------------------------------------------------------------------------
Image Image
10 14 03Banks**** With Myself
[34-14-10]
---------------------------------------------------------------------------------------------------------
Image Image
11 18 03Ben RectorBrand New
[36-18-11]
---------------------------------------------------------------------------------------------------------
Image Image
12 09 07Christina AguileraChange
[34-16-13-8-8-9-12]
---------------------------------------------------------------------------------------------------------
Image Image
13 10 14ColdplayUp&Up
[26-14-10-10-9-3-1-1-3-5-5-6-10-13]
---------------------------------------------------------------------------------------------------------
Image Image
14 20 02Tom OdellConcrete
[20-14]
---------------------------------------------------------------------------------------------------------
Image Image
15 12 10Guy GarveyOpen The Door
[47-40-28-25-20-17-16-13-12-15]
---------------------------------------------------------------------------------------------------------
Image Image
16 16 06Christine and the QueensTilted
[44-35-25-19-16-16]
---------------------------------------------------------------------------------------------------------
Image Image
17 13 14RadioheadBurn The Witch
[1-1-1-1-2-2-3-3-6-7-10-11-13-17]
---------------------------------------------------------------------------------------------------------
Image Image
18 15 13Justin TimberlakeCan't Stop The Feeling!
[50-20-5-4-6-5-5-4-6-7-9-15-18]
---------------------------------------------------------------------------------------------------------
Image Image
19 17 03Alessia CaraScars To Your Beautiful
[20-17-19]
---------------------------------------------------------------------------------------------------------
Image Image
20 19 12The 1975A Change Of Heart
[30-21-20-14-11-9-10-8-9-14-19-20]
---------------------------------------------------------------------------------------------------------
Image Image
21 27 06PassengerSomebody's Love
[46-38-32-29-27-21]
---------------------------------------------------------------------------------------------------------
Image Image
22 26 07The KillsDoing It To Death
[46-33-28-22-21-26-22]
---------------------------------------------------------------------------------------------------------
Image Image
23 24 09Mystery JetsBombay Blue
[47-39-35-32-29-21-23-24-23]
---------------------------------------------------------------------------------------------------------
Image Image
24 23 11RadioheadSpectre
[22-27-19-27-27-28-30-28-26-23-24]
---------------------------------------------------------------------------------------------------------
Image Image
25 21 17RihannaKiss It Better
[47-41-31-23-22-16-11-5-5-7-6-8-12-13-18-21-25]
---------------------------------------------------------------------------------------------------------
Image Image
26 25 12AdeleSend My Love (To Your New Lover)
[2-2-3-4-4-8-12-11-12-15-25-26]
---------------------------------------------------------------------------------------------------------
Image Image
27 22 16Tom OdellMagnetised
[40-22-5-4-6-9-12-8-10-7-7-10-11-16-22-27]
---------------------------------------------------------------------------------------------------------
Image Image
28 29 14Chelsea JadeLow Brow
[2-3-3-4-6-7-9-11-13-16-18-25-29-28]
---------------------------------------------------------------------------------------------------------
Image Image
29 31 09Richard AshcroftHold On
[45-21-18-19-21-24-27-31-29]
---------------------------------------------------------------------------------------------------------
Image Image
30 30 18Tom OdellWrong Crowd
[2-1-1-1-3-7-8-12-13-11-13-14-15-15-19-24-30-30]
---------------------------------------------------------------------------------------------------------
Image Image
31 35 04Biffy ClyroAnimal Style
[41-39-35-31]
---------------------------------------------------------------------------------------------------------
Image Image
32 28 10DrakeToo Good (Featuring Rihanna)
[40-27-19-17-9-9-15-22-28-32]
---------------------------------------------------------------------------------------------------------
Image Image
33 36 13RadioheadDaydreaming
[5-7-8-11-18-22-29-31-34-36-38-36-33]
---------------------------------------------------------------------------------------------------------
Image Image
34 33 13Red Hot Chili PeppersDark Necessities
[2-5-6-8-15-16-10-14-18-20-28-33-34]
---------------------------------------------------------------------------------------------------------
Image Image
35 40 03DNCEToothbrush
[47-40-35]
---------------------------------------------------------------------------------------------------------
Image Image
36 34 09BeckWow
[37-24-21-22-24-23-30-34-36]
---------------------------------------------------------------------------------------------------------
Image Image
37 42 03KT TunstallMaybe It's A Good Thing
[44-42-37]
---------------------------------------------------------------------------------------------------------
Image Image
38 32 08The Temper TrapFall Together
[49-45-41-40-35-32-32-38]
---------------------------------------------------------------------------------------------------------
Image Image
39 49 02Regina SpektorBleeding Heart
[49-39]
---------------------------------------------------------------------------------------------------------
Image Image
40 43 03Gavin DeGrawShe Sets The City On Fire
[49-43-40]
---------------------------------------------------------------------------------------------------------
Image Image
41 44 03Britney SpearsMake Me... (Featuring G-Eazy)
[50-44-41]
---------------------------------------------------------------------------------------------------------
Image Image
42 41 03PJ HarveyGuilty
[41-41-42]
---------------------------------------------------------------------------------------------------------
Image Image
43 38 18Ruth BLost Boy
[42-38-15-2-4-6-4-7-7-13-14-15-17-22-26-33-38-43]
---------------------------------------------------------------------------------------------------------
Image Image
44 37 14Catfish and the Bottlemen7
[36-27-25-27-17-12-12-20-24-26-30-31-37-44]
---------------------------------------------------------------------------------------------------------
Image Image
45 39 17Frightened RabbitGet Out
[43-25-15-12-12-13-13-14-16-18-22-25-25-27-37-39-45]
---------------------------------------------------------------------------------------------------------
Image Image
46 46 03AWOLNATIONRun (Beautiful Things)
[46-46-46]
---------------------------------------------------------------------------------------------------------
Image Image
47 45 20twenty one pilotsRide
[36-18-14-11-10-11-7-10-12-15-15-17-15-13-18-23-29-35-45-47]
---------------------------------------------------------------------------------------------------------
Image Image
48 50 02Troye SivanWild (Featuring Alessia Cara)
[50-48]
---------------------------------------------------------------------------------------------------------
Image Image
49 00 01Kenny ChesneySetting The World On Fire (Featuring P!nk)
[49]
---------------------------------------------------------------------------------------------------------
Image Image
50 48 02BeyoncéSorry
[48-50]
---------------------------------------------------------------------------------------------------------
OUT
---------------------------------------------------------------------------------------------------------
47 07GarbageEmpty
[41-33-30-31-33-40-47]
---------------------------------------------------------------------------------------------------------
User avatar
LittleArsonist
Personal Assistant
 
Posts: 946
Joined: Wed Jan 14, 2004

Postby JakeP » Fri Aug 05, 2016 1:35 pm

Hi LittleArsonist :D

My favourites in your chart:

02 04 07 • Bastille • Good Grief
04 02 06 • Rihanna • Sledgehammer
05 07 03 • Katy Perry • Rise
06 05 15 • Calum Scott • Dancing On My Own
07 11 05 • twenty one pilots • Heathens
12 09 07 • Christina Aguilera • Change
13 10 14 • Coldplay • Up&Up
16 16 06 • Christine and the Queens • Tilted
17 13 14 • Radiohead • Burn The Witch
18 15 13 • Justin Timberlake • Can't Stop The Feeling!
25 21 17 • Rihanna • Kiss It Better
26 25 12 • Adele • Send My Love (To Your New Lover)
32 28 10 • Drake • Too Good (Featuring Rihanna)
41 44 03 • Britney Spears • Make Me... (Featuring G-Eazy)
47 45 20 • twenty one pilots • Ride
48 50 02 • Troye Sivan • Wild (Featuring Alessia Cara)
49 00 01 • Kenny Chesney • Setting The World On Fire (Featuring P!nk)
50 48 02 • Beyoncé • Sorry

Not heard your #1 but i recognise the name so will check this out on Youtube.
User avatar
JakeP
Superstar
 
Posts: 5008
Joined: Mon Aug 19, 2013

Postby Tansike » Wed Aug 10, 2016 5:45 am

LittleArsonist wrote:
Also liking the debut for Tom Odell.
quite obvious he was going to debut with his new single... love him to bits!

Haven't heard the "Wild" remix with Alessia, but the original is great.
check it and check my #1 too...it's very good
Oh so "Concrete" is the next single? I had no idea! :oops:

So i've checked out your number one and it's a nice ballad - unexpected though, i thought it would be a rock-pop-song or something like this. Still a nice tune!
Also checked out the "Wild" remix with Alessia. It's good, but i prefered the original version with Troye solo :oops: Alessia's got a great voice, but i think the solo version has a better atmosphere... still, it's good, and i hope he can get a hit with it :)

I've checked out the new entry by Kenny/P!nk as well and really liked it! :)
User avatar
Tansike
Legend
 
Posts: 44818
Joined: Sat Jan 28, 2012
Location: Switzerland

Postby LittleArsonist » Thu Aug 11, 2016 4:46 pm

JakeP wrote:Hi LittleArsonist :D

My favourites in your chart:

02 04 07 • Bastille • Good Grief
04 02 06 • Rihanna • Sledgehammer
05 07 03 • Katy Perry • Rise
06 05 15 • Calum Scott • Dancing On My Own
07 11 05 • twenty one pilots • Heathens
12 09 07 • Christina Aguilera • Change
13 10 14 • Coldplay • Up&Up
16 16 06 • Christine and the Queens • Tilted
17 13 14 • Radiohead • Burn The Witch
18 15 13 • Justin Timberlake • Can't Stop The Feeling!
25 21 17 • Rihanna • Kiss It Better
26 25 12 • Adele • Send My Love (To Your New Lover)
32 28 10 • Drake • Too Good (Featuring Rihanna)
41 44 03 • Britney Spears • Make Me... (Featuring G-Eazy)
47 45 20 • twenty one pilots • Ride
48 50 02 • Troye Sivan • Wild (Featuring Alessia Cara)
49 00 01 • Kenny Chesney • Setting The World On Fire (Featuring P!nk)
50 48 02 • Beyoncé • Sorry
hey JakeP :) thanks for checking

Not heard your #1 but i recognise the name so will check this out on Youtube.
he was Matchbox Twenty lead singer :) what are your thoughts about it?
User avatar
LittleArsonist
Personal Assistant
 
Posts: 946
Joined: Wed Jan 14, 2004

Postby LittleArsonist » Thu Aug 11, 2016 4:47 pm

Tansike wrote:Oh so "Concrete" is the next single? I had no idea! :oops:
looks like it hehe it has a video too :o

So i've checked out your number one and it's a nice ballad - unexpected though, i thought it would be a rock-pop-song or something like this. Still a nice tune!
glad you liked it 8-)

I've checked out the new entry by Kenny/P!nk as well and really liked it! :)
I really didn't expect to see Kenny Chesney in my chart EVER! ahahahha but yep this collaboration is really nice :oops:
User avatar
LittleArsonist
Personal Assistant
 
Posts: 946
Joined: Wed Jan 14, 2004

Postby LittleArsonist » Thu Aug 11, 2016 7:38 pm

cover
[TW] (WI)
artist
track title
[chartrun]
---------------------------------------------------------------------------------------------------------
50:иgѕ (33/52) - week ending August 14
---------------------------------------------------------------------------------------------------------

---------------------------------------------------------------------------------------------------------
Image Image
01 01 08Rob ThomasPieces
[49-38-20-14-4-1-1-1]
---------------------------------------------------------------------------------------------------------
Image Image
02 10 04Banks**** With Myself
[34-14-10-2]
---------------------------------------------------------------------------------------------------------
Image Image
03 02 08BastilleGood Grief
[38-23-19-17-12-4-2-3]
---------------------------------------------------------------------------------------------------------
Image Image
04 03 08HozierBetter Love
[30-11-1-1-1-3-3-4]
---------------------------------------------------------------------------------------------------------
Image Image
05 07 06twenty one pilotsHeathens
[41-31-17-11-7-5]
---------------------------------------------------------------------------------------------------------
Image Image
06 05 04Katy PerryRise
[10-7-5-6]
---------------------------------------------------------------------------------------------------------
Image Image
07 04 07RihannaSledgehammer
[36-14-2-2-2-4-7]
---------------------------------------------------------------------------------------------------------
Image Image
08 11 04Ben RectorBrand New
[36-18-11-8]
---------------------------------------------------------------------------------------------------------
Image Image
09 06 16Calum ScottDancing On My Own
[43-40-34-31-31-30-43-25-24-5-3-3-3-5-6-9]
---------------------------------------------------------------------------------------------------------
Image Image
10 16 07Christine and the QueensTilted
[44-35-25-19-16-16-10]
---------------------------------------------------------------------------------------------------------
Image Image
11 08 10kiiaraGold
[49-30-4-2-2-4-7-6-8-11]
---------------------------------------------------------------------------------------------------------
Image Image
12 14 03Tom OdellConcrete
[20-14-12]
---------------------------------------------------------------------------------------------------------
Image Image
13 15 11Guy GarveyOpen The Door
[47-40-28-25-20-17-16-13-12-15-13]
---------------------------------------------------------------------------------------------------------
Image Image
14 09 15Tom OdellConstellations
[46-20-9-3-1-1-2-2-1-4-6-5-8-9-14]
---------------------------------------------------------------------------------------------------------
Image Image
15 12 08Christina AguileraChange
[34-16-13-8-8-9-12-15]
---------------------------------------------------------------------------------------------------------
Image Image
16 20 13The 1975A Change Of Heart
[30-21-20-14-11-9-10-8-9-14-19-20-16]
---------------------------------------------------------------------------------------------------------
Image Image
17 13 15ColdplayUp&Up
[26-14-10-10-9-3-1-1-3-5-5-6-10-13-17]
---------------------------------------------------------------------------------------------------------
Image Image
18 18 14Justin TimberlakeCan't Stop The Feeling!
[50-20-5-4-6-5-5-4-6-7-9-15-18-18]
---------------------------------------------------------------------------------------------------------
Image Image
19 21 07PassengerSomebody's Love
[46-38-32-29-27-21-19]
---------------------------------------------------------------------------------------------------------
Image Image
20 17 15RadioheadBurn The Witch
[1-1-1-1-2-2-3-3-6-7-10-11-13-17-20]
---------------------------------------------------------------------------------------------------------
Image Image
21 23 10Mystery JetsBombay Blue
[47-39-35-32-29-21-23-24-23-21]
---------------------------------------------------------------------------------------------------------
Image Image
22 22 08The KillsDoing It To Death
[46-33-28-22-21-26-22-22]
---------------------------------------------------------------------------------------------------------
Image Image
23 19 04Alessia CaraScars To Your Beautiful
[20-17-19-23]
---------------------------------------------------------------------------------------------------------
Image Image
24 39 03Regina SpektorBleeding Heart
[49-39-24]
---------------------------------------------------------------------------------------------------------
Image Image
25 24 12RadioheadSpectre
[22-27-19-27-27-28-30-28-26-23-24-25]
---------------------------------------------------------------------------------------------------------
Image Image
26 31 05Biffy ClyroAnimal Style
[41-39-35-31-26]
---------------------------------------------------------------------------------------------------------
Image Image
27 32 11DrakeToo Good (Featuring Rihanna)
[40-27-19-17-9-9-15-22-28-32-27]
---------------------------------------------------------------------------------------------------------
Image Image
28 25 18RihannaKiss It Better
[47-41-31-23-22-16-11-5-5-7-6-8-12-13-18-21-25-28]
---------------------------------------------------------------------------------------------------------
Image Image
29 28 15Chelsea JadeLow Brow
[2-3-3-4-6-7-9-11-13-16-18-25-29-28-29]
---------------------------------------------------------------------------------------------------------
Image Image
30 27 17Tom OdellMagnetised
[40-22-5-4-6-9-12-8-10-7-7-10-11-16-22-27-30]
---------------------------------------------------------------------------------------------------------
Image Image
31 35 04DNCEToothbrush
[47-40-35-31]
---------------------------------------------------------------------------------------------------------
Image Image
32 37 04KT TunstallMaybe It's A Good Thing
[44-42-37-32]
---------------------------------------------------------------------------------------------------------
Image Image
33 29 10Richard AshcroftHold On
[45-21-18-19-21-24-27-31-29-33]
---------------------------------------------------------------------------------------------------------
Image Image
34 26 13AdeleSend My Love (To Your New Lover)
[2-2-3-4-4-8-12-11-12-15-25-26-34]
---------------------------------------------------------------------------------------------------------
Image Image
35 33 14RadioheadDaydreaming
[5-7-8-11-18-22-29-31-34-36-38-36-33-35]
---------------------------------------------------------------------------------------------------------
Image Image
36 36 10BeckWow
[37-24-21-22-24-23-30-34-36-36]
---------------------------------------------------------------------------------------------------------
Image Image
37 49 02Kenny ChesneySetting The World On Fire (Featuring P!nk)
[49-37]
---------------------------------------------------------------------------------------------------------
Image Image
38 30 19Tom OdellWrong Crowd
[2-1-1-1-3-7-8-12-13-11-13-14-15-15-19-24-30-30-38]
---------------------------------------------------------------------------------------------------------
Image Image
39 43 03Gavin DeGrawShe Sets The City On Fire
[49-43-39]
---------------------------------------------------------------------------------------------------------
Image Image
40 00 01Tove LoCool Girl
[40]
---------------------------------------------------------------------------------------------------------
Image Image
41 38 09The Temper TrapFall Together
[49-45-41-40-35-32-32-38-41]
---------------------------------------------------------------------------------------------------------
Image Image
42 34 14Red Hot Chili PeppersDark Necessities
[2-5-6-8-15-16-10-14-18-20-28-33-34-42]
---------------------------------------------------------------------------------------------------------
Image Image
43 46 04AWOLNATIONRun (Beautiful Things)
[46-46-46-43]
---------------------------------------------------------------------------------------------------------
Image Image
44 42 04PJ HarveyGuilty
[41-41-42-44]
---------------------------------------------------------------------------------------------------------
Image Image
45 48 03Troye SivanWild (Featuring Alessia Cara)
[50-48-45]
---------------------------------------------------------------------------------------------------------
Image Image
46 41 04Britney SpearsMake Me... (Featuring G-Eazy)
[50-44-41-46]
---------------------------------------------------------------------------------------------------------
Image Image
47 00 01Massive AttackThe Spoils (Featuring Hope Sandoval)
[47]
---------------------------------------------------------------------------------------------------------
Image Image
48 43 19Ruth BLost Boy
[42-38-15-2-4-6-4-7-7-13-14-15-17-22-26-33-38-43-48]
---------------------------------------------------------------------------------------------------------
Image Image
49 44 15Catfish and the Bottlemen7
[36-27-25-27-17-12-12-20-24-26-30-31-37-44-49]
---------------------------------------------------------------------------------------------------------
Image Image
50 45 18Frightened RabbitGet Out
[43-25-15-12-12-13-13-14-16-18-22-25-25-27-37-39-45-50]
---------------------------------------------------------------------------------------------------------
OUT
---------------------------------------------------------------------------------------------------------
47 20twenty one pilotsRide
[36-18-14-11-10-11-7-10-12-15-15-17-15-13-18-23-29-35-45-47]
---------------------------------------------------------------------------------------------------------
50 02BeyoncéSorry
[48-50]
---------------------------------------------------------------------------------------------------------
Last edited by LittleArsonist on Thu Aug 18, 2016 9:48 pm, edited 6 times in total.
User avatar
LittleArsonist
Personal Assistant
 
Posts: 946
Joined: Wed Jan 14, 2004

Postby heppolo » Thu Aug 11, 2016 9:10 pm

Christine and the Queens • Tilted
Going top ten is great.
Massive Attack's new song is also very enduring
Waffles are checked cookies
User avatar
heppolo
Legend
 
Posts: 23209
Joined: Sun May 17, 2009
Location: interchangeable

Postby Tansike » Tue Aug 16, 2016 6:09 pm

Great debut for Tove Lo. I really hope this can be a hit for her :)
User avatar
Tansike
Legend
 
Posts: 44818
Joined: Sat Jan 28, 2012
Location: Switzerland

Postby LittleArsonist » Thu Aug 18, 2016 7:15 pm

cover
[TW] (WI)
artist
track title
[chartrun]
---------------------------------------------------------------------------------------------------------
50:иgѕ (34/52) - week ending August 21
---------------------------------------------------------------------------------------------------------

---------------------------------------------------------------------------------------------------------
Image Image
01 02 05Banks**** With Myself
[34-14-10-2-1]
---------------------------------------------------------------------------------------------------------
Image Image
02 01 09Rob ThomasPieces
[49-38-20-14-4-1-1-1-2]
---------------------------------------------------------------------------------------------------------
Image Image
03 05 07twenty one pilotsHeathens
[41-31-17-11-7-5-3]
---------------------------------------------------------------------------------------------------------
Image Image
04 08 05Ben RectorBrand New
[36-18-11-8-4]
---------------------------------------------------------------------------------------------------------
Image Image
05 03 09BastilleGood Grief
[38-23-19-17-12-4-2-3-5]
---------------------------------------------------------------------------------------------------------
Image Image
06 04 09HozierBetter Love
[30-11-1-1-1-3-3-4-6]
---------------------------------------------------------------------------------------------------------
Image Image
07 07 08RihannaSledgehammer
[36-14-2-2-2-4-7-7]
---------------------------------------------------------------------------------------------------------
Image Image
08 10 08Christine and the QueensTilted
[44-35-25-19-16-16-10-8]
---------------------------------------------------------------------------------------------------------
Image Image
09 12 04Tom OdellConcrete
[20-14-12-9]
---------------------------------------------------------------------------------------------------------
Image Image
10 06 05Katy PerryRise
[10-7-5-6-10]
---------------------------------------------------------------------------------------------------------
Image Image
11 11 11kiiaraGold
[49-30-4-2-2-4-7-6-8-11-11]
---------------------------------------------------------------------------------------------------------
Image Image
12 37 03Kenny ChesneySetting The World On Fire (Featuring P!nk)
[49-37-12]
---------------------------------------------------------------------------------------------------------
Image Image
13 09 17Calum ScottDancing On My Own
[43-40-34-31-31-30-43-25-24-5-3-3-3-5-6-9-13]
---------------------------------------------------------------------------------------------------------
Image Image
14 13 12Guy GarveyOpen The Door
[47-40-28-25-20-17-16-13-12-15-13-14]
---------------------------------------------------------------------------------------------------------
Image Image
15 15 09Christina AguileraChange
[34-16-13-8-8-9-12-15-15]
---------------------------------------------------------------------------------------------------------
Image Image
16 19 08PassengerSomebody's Love
[46-38-32-29-27-21-19-16]
---------------------------------------------------------------------------------------------------------
Image Image
17 21 11Mystery JetsBombay Blue
[47-39-35-32-29-21-23-24-23-21-17]
---------------------------------------------------------------------------------------------------------
Image Image
18 14 16Tom OdellConstellations
[46-20-9-3-1-1-2-2-1-4-6-5-8-9-14-18]
---------------------------------------------------------------------------------------------------------
Image Image
19 20 16RadioheadBurn The Witch
[1-1-1-1-2-2-3-3-6-7-10-11-13-17-20-19]
---------------------------------------------------------------------------------------------------------
Image Image
20 24 04Regina SpektorBleeding Heart
[49-39-24-20]
---------------------------------------------------------------------------------------------------------
Image Image
21 17 16ColdplayUp&Up
[26-14-10-10-9-3-1-1-3-5-5-6-10-13-17-21]
---------------------------------------------------------------------------------------------------------
Image Image
22 26 06Biffy ClyroAnimal Style
[41-39-35-31-26-22]
---------------------------------------------------------------------------------------------------------
Image Image
23 16 14The 1975A Change Of Heart
[30-21-20-14-11-9-10-8-9-14-19-20-16-23]
---------------------------------------------------------------------------------------------------------
Image Image
24 25 13RadioheadSpectre
[22-27-19-27-27-28-30-28-26-23-24-25-24]
---------------------------------------------------------------------------------------------------------
Image Image
25 18 15Justin TimberlakeCan't Stop The Feeling!
[50-20-5-4-6-5-5-4-6-7-9-15-18-18-25]
---------------------------------------------------------------------------------------------------------
Image Image
26 23 05Alessia CaraScars To Your Beautiful
[20-17-19-23-26]
---------------------------------------------------------------------------------------------------------
Image Image
27 47 02Massive AttackThe Spoils (Featuring Hope Sandoval)
[47-27]
---------------------------------------------------------------------------------------------------------
Image Image
28 22 09The KillsDoing It To Death
[46-33-28-22-21-26-22-22-28]
---------------------------------------------------------------------------------------------------------
Image Image
29 27 12DrakeToo Good (Featuring Rihanna)
[40-27-19-17-9-9-15-22-28-32-27-29]
---------------------------------------------------------------------------------------------------------
Image Image
30 40 02Tove LoCool Girl
[40-30]
---------------------------------------------------------------------------------------------------------
Image Image
31 29 16Chelsea JadeLow Brow
[2-3-3-4-6-7-9-11-13-16-18-25-29-28-29-31]
---------------------------------------------------------------------------------------------------------
Image Image
32 32 05KT TunstallMaybe It's A Good Thing
[44-42-37-32-32]
---------------------------------------------------------------------------------------------------------
Image Image
33 31 05DNCEToothbrush
[47-40-35-31-33]
---------------------------------------------------------------------------------------------------------
Image Image
34 28 19RihannaKiss It Better
[47-41-31-23-22-16-11-5-5-7-6-8-12-13-18-21-25-28-34]
---------------------------------------------------------------------------------------------------------
Image Image
35 30 18Tom OdellMagnetised
[40-22-5-4-6-9-12-8-10-7-7-10-11-16-22-27-30-35]
---------------------------------------------------------------------------------------------------------
Image Image
36 45 04Troye SivanWild (Featuring Alessia Cara)
[50-48-45-36]
---------------------------------------------------------------------------------------------------------
Image Image
37 35 15RadioheadDaydreaming
[5-7-8-11-18-22-29-31-34-36-38-36-33-35-37]
---------------------------------------------------------------------------------------------------------
Image Image
38 34 14AdeleSend My Love (To Your New Lover)
[2-2-3-4-4-8-12-11-12-15-25-26-34-38]
---------------------------------------------------------------------------------------------------------
Image Image
39 43 05AWOLNATIONRun (Beautiful Things)
[46-46-46-43-39]
---------------------------------------------------------------------------------------------------------
Image Image
40 41 10The Temper TrapFall Together
[49-45-41-40-35-32-32-38-41-40]
---------------------------------------------------------------------------------------------------------
Image Image
41 33 11Richard AshcroftHold On
[45-21-18-19-21-24-27-31-29-33-41]
---------------------------------------------------------------------------------------------------------
Image Image
42 44 05PJ HarveyGuilty
[41-41-42-44-42]
---------------------------------------------------------------------------------------------------------
Image Image
43 39 04Gavin DeGrawShe Sets The City On Fire
[49-43-39-43]
---------------------------------------------------------------------------------------------------------
Image Image
44 00 01BanksGemini Feed
[44]
---------------------------------------------------------------------------------------------------------
Image Image
45 36 11BeckWow
[37-24-21-22-24-23-30-34-36-36-45]
---------------------------------------------------------------------------------------------------------
Image Image
46 38 20Tom OdellWrong Crowd
[2-1-1-1-3-7-8-12-13-11-13-14-15-15-19-24-30-30-38-46]
---------------------------------------------------------------------------------------------------------
Image Image
47 00 01Green DayBang Bang
[47]
---------------------------------------------------------------------------------------------------------
Image Image
48 00 09The 1975Somebody Else
[40-37-34-31-28-34-43-49 // 48]
---------------------------------------------------------------------------------------------------------
Image Image
49 50 19Frightened RabbitGet Out
[43-25-15-12-12-13-13-14-16-18-22-25-25-27-37-39-45-50-49]
---------------------------------------------------------------------------------------------------------
Image Image
50 42 15Red Hot Chili PeppersDark Necessities
[2-5-6-8-15-16-10-14-18-20-28-33-34-42-50]
---------------------------------------------------------------------------------------------------------
OUT
---------------------------------------------------------------------------------------------------------
46 04Britney SpearsMake Me... (Featuring G-Eazy)
[50-44-41-46]
---------------------------------------------------------------------------------------------------------
48 19Ruth BLost Boy
[42-38-15-2-4-6-4-7-7-13-14-15-17-22-26-33-38-43-48]
---------------------------------------------------------------------------------------------------------
49 15Catfish and the Bottlemen7
[36-27-25-27-17-12-12-20-24-26-30-31-37-44-49]
---------------------------------------------------------------------------------------------------------
Last edited by LittleArsonist on Thu Aug 18, 2016 9:44 pm, edited 1 time in total.
User avatar
LittleArsonist
Personal Assistant
 
Posts: 946
Joined: Wed Jan 14, 2004

Postby LittleArsonist » Thu Aug 18, 2016 8:46 pm

Tansike wrote:Great debut for Tove Lo. I really hope this can be a hit for her :)
really like the song!!!! :D
User avatar
LittleArsonist
Personal Assistant
 
Posts: 946
Joined: Wed Jan 14, 2004

Return to Personal Charts