50:иgѕ w/e September 16 - POWER!

Moderators: JSparksFan, tdc2000, FreakyFlyBry

 

Postby LittleArsonist » Fri Feb 09, 2018 1:44 pm

heppolo wrote:50 00 01 James Blake • If The Car Beside You Moves Ahead

This song is a little bit strange, reminds me of some UNKLE/Massive Attack tracks from twenty years ago
ahah you're actually right... it's weird yet enjoyable.
User avatar
LittleArsonist
Personal Assistant
 
Posts: 931
Joined: Wed Jan 14, 2004

Postby LittleArsonist » Sat Feb 17, 2018 11:04 am

TW LW WI
artist
track title
[chartrun]
----------------------------------------------------------------------------------------------------------------------------------
50:иgѕ (07/52) - week ending February 18
----------------------------------------------------------------------------------------------------------------------------------

----------------------------------------------------------------------------------------------------------------------------------
Image
01 01 03 P!nkWild Hearts Can't Be Broken
[2-1-1]
----------------------------------------------------------------------------------------------------------------------------------
Image
02 03 04 Lady GagaJoanne (Where Do You Think You're Goin'?) (Piano Version)
[15-6-3-2]
----------------------------------------------------------------------------------------------------------------------------------
Image
03 04 07 Kendrick Lamar & SZAAll The Stars
[48-37-34-16-9-4-3]
----------------------------------------------------------------------------------------------------------------------------------
Image
04 05 09 Jennifer HudsonBurden Down
[48-31-27-18-12-9-4-5-4]
----------------------------------------------------------------------------------------------------------------------------------
Image
05 02 05 G-Eazy & HalseyHim & I
[18-2-1-2-5]
----------------------------------------------------------------------------------------------------------------------------------
Image
06 08 14 Nothing But ThievesParticles
[33-39-37-33-28-21-14-4-2-2-4-7-8-6]
----------------------------------------------------------------------------------------------------------------------------------
Image
07 23 04 Justin TimberlakeSay Something (Featuring Chris Stapleton)
[47-45-23-7]
----------------------------------------------------------------------------------------------------------------------------------
Image
08 07 04 Bruno Mars & Cardi BFinesse (Remix)
[37-17-7-8]
----------------------------------------------------------------------------------------------------------------------------------
Image
09 09 09 KhalidSaved
[49-38-30-7-4-3-5-9-9]
----------------------------------------------------------------------------------------------------------------------------------
Image
10 12 06 Troye SivanMy My My!
[49-39-32-26-12-10]
----------------------------------------------------------------------------------------------------------------------------------
Image
11 11 06 Vance JoyWe're Going Home
[28-16-13-13-11-11]
----------------------------------------------------------------------------------------------------------------------------------
Image
12 13 07 Justin TimberlakeFilthy
[39-35-28-21-15-13-12]
----------------------------------------------------------------------------------------------------------------------------------
Image
13 15 10 BastilleWorld Gone Mad
[45-40-36-26-24-21-18-18-15-13]
----------------------------------------------------------------------------------------------------------------------------------
Image
14 19 09 SZA x Calvin HarrisThe Weekend (Funk Wav Remix)
[50-42-36-32-27-24-21-19-14]
----------------------------------------------------------------------------------------------------------------------------------
Image
15 14 13 HalseyBad At Love
[50-46-41-34-28-20-18-13-9-8-11-14-15]
----------------------------------------------------------------------------------------------------------------------------------
Image
16 24 02 James BayWild Love
[24-16]
----------------------------------------------------------------------------------------------------------------------------------
Image
17 06 18 Imagine DragonsWhatever It Takes
[28-17-13-15-23-19-19-26-30-35-30-21-4-1-1-3-6-17]
----------------------------------------------------------------------------------------------------------------------------------
Image
18 10 05 Jack WhiteConnected By Love
[8-5-8-10-18]
----------------------------------------------------------------------------------------------------------------------------------
Image
19 16 13 P!nkBeautiful Trauma
[15-4-1-1-2-2-1-1-3-6-10-16-19]
----------------------------------------------------------------------------------------------------------------------------------
Image
20 17 10 James ArthurNaked
[35-23-23-20-15-10-10-14-17-20]
----------------------------------------------------------------------------------------------------------------------------------
Image
21 34 04 Julia MichaelsHeaven
[48-44-34-21]
----------------------------------------------------------------------------------------------------------------------------------
Image
22 18 10 HAIMWalking Away
[40-30-18-10-6-6-7-12-18-22]
----------------------------------------------------------------------------------------------------------------------------------
Image
23 20 06 Hailee Steinfeld & BloodPop®Capital Letters
[33-31-26-23-20-23]
----------------------------------------------------------------------------------------------------------------------------------
Image
24 43 02 Paloma FaithTil I'm Done
[43-24]
----------------------------------------------------------------------------------------------------------------------------------
Image
25 21 05 Rita OraAnywhere
[46-38-33-21-25]
----------------------------------------------------------------------------------------------------------------------------------
Image
26 28 09 Portugal. The ManLive In The Moment
[41-40-37-30-29-30-32-28-26]
----------------------------------------------------------------------------------------------------------------------------------
Image
27 22 14 London GrammarHell To The Liars
[37-31-21-20-16-10-9-8-3-5-11-16-22-27]
----------------------------------------------------------------------------------------------------------------------------------
Image
28 26 07 James BlakeVincent
[50-40-37-35-28-26-28]
----------------------------------------------------------------------------------------------------------------------------------
Image
29 27 16 Emeli SandéHigher (Featuring Giggs)
[48-2-1-2-1-2-3-4-4-3-5-7-12-20-27-29]
----------------------------------------------------------------------------------------------------------------------------------
Image
30 25 16 Paloma FaithGuilty
[21-17-15-7-7-6-7-9-7-7-10-11-14-19-25-30]
----------------------------------------------------------------------------------------------------------------------------------
Image
31 32 05 Beth DittoI'm Alive
[36-34-34-32-31]
----------------------------------------------------------------------------------------------------------------------------------
Image
32 29 09 The KillersRut
[39-34-33-26-24-25-24-29-32]
----------------------------------------------------------------------------------------------------------------------------------
Image
33 36 05 Troye SivanThe Good Side
[41-41-38-36-33]
----------------------------------------------------------------------------------------------------------------------------------
Image
34 38 04 MigosStir Fry
[44-41-38-34]
----------------------------------------------------------------------------------------------------------------------------------
Image
35 31 16 Vance JoyLike Gold
[47-43-36-26-17-14-13-16-15-13-19-23-28-29-31-35]
----------------------------------------------------------------------------------------------------------------------------------
Image
36 42 03 Liam Payne & Rita OraFor You
[47-42-36]
----------------------------------------------------------------------------------------------------------------------------------
Image
37 39 05 Justin TimberlakeSupplies
[50-45-40-39-37]
----------------------------------------------------------------------------------------------------------------------------------
Image
38 30 12 Sam SmithOne Last Song
[15-11-5-5-3-5-11-14-17-22-30-38]
----------------------------------------------------------------------------------------------------------------------------------
Image
39 00 01 Maroon 5Wait
[39]
----------------------------------------------------------------------------------------------------------------------------------
Image
40 35 14 U2The Blackout
[40-37-35-22-12-12-8-6-12-17-23-30-35-40]
----------------------------------------------------------------------------------------------------------------------------------
Image
41 33 11 Ed SheeranPerfect (Duet With Beyoncé)
[25-2-1-1-2-8-15-20-27-33-41]
----------------------------------------------------------------------------------------------------------------------------------
Image
42 00 01 U2Get Out Of Your Own Way
[42]
----------------------------------------------------------------------------------------------------------------------------------
Image
43 50 02 The Weeknd & Kendrick LamarPray For Me
[50-43]
----------------------------------------------------------------------------------------------------------------------------------
Image
44 37 14 U2You're The Best Thing About Me
[49-47 // 48 // 40-26-20-11-9-9-13-19-25-37-44]
----------------------------------------------------------------------------------------------------------------------------------
Image
45 47 04 DrakeGod's Plan
[50-48-47-45]
----------------------------------------------------------------------------------------------------------------------------------
Image
46 44 20 P!nkWhatever You Want
[20-1-1-1-2-3-5-6-8-9-10-14-21-17-20-26-33-39-44-46]
----------------------------------------------------------------------------------------------------------------------------------
Image
47 41 20 Sam SmithPray
[35-30-26-21-1-1-2-3-3-5-8-8-12-16-21-25-31-37-41-47]
----------------------------------------------------------------------------------------------------------------------------------
Image
48 45 14 Calum ScottYou Are The Reason
[3-1-2-3-6-6-5-11-14-19-27-35-45-48]
----------------------------------------------------------------------------------------------------------------------------------
Image
49 40 18 TexasCan't Control
[43-37-33-20-12-18-16-13-11-11-13-15-17-20-22-31-40-49]
----------------------------------------------------------------------------------------------------------------------------------
Image
50 00 01 Kendrick LamarLOVE. (Featuring Zacari)
[50]
----------------------------------------------------------------------------------------------------------------------------------
OUT
----------------------------------------------------------------------------------------------------------------------------------
46 05 BØRNSGod Save Our Young Blood (Featuring Lana Del Rey)
[41-40-43-42-46]
----------------------------------------------------------------------------------------------------------------------------------
48 02 James BlakeIf The Car Beside You Moves Ahead
[50-48]
----------------------------------------------------------------------------------------------------------------------------------
49 19 Rachel PlattenPerfect For You
[42-34-14-7-6-5-6-5-6-7-9-15-16-19-23-30-36-43-49]
----------------------------------------------------------------------------------------------------------------------------------
User avatar
LittleArsonist
Personal Assistant
 
Posts: 931
Joined: Wed Jan 14, 2004

Postby LittleArsonist » Sat Feb 24, 2018 2:04 pm

TW LW WI
artist
track title
[chartrun]
----------------------------------------------------------------------------------------------------------------------------------
50:иgѕ (08/52) - week ending February 25
----------------------------------------------------------------------------------------------------------------------------------

----------------------------------------------------------------------------------------------------------------------------------
Image
01 02 05 Lady GagaJoanne (Where Do You Think You're Goin'?) (Piano Version)
[15-6-3-2-1]
----------------------------------------------------------------------------------------------------------------------------------
Image
02 03 08 Kendrick Lamar & SZAAll The Stars
[48-37-34-16-9-4-3-2]
----------------------------------------------------------------------------------------------------------------------------------
Image
03 01 04 P!nkWild Hearts Can't Be Broken
[2-1-1-3]
----------------------------------------------------------------------------------------------------------------------------------
Image
04 05 06 G-Eazy & HalseyHim & I
[18-2-1-2-5-4]
----------------------------------------------------------------------------------------------------------------------------------
Image
05 07 05 Justin TimberlakeSay Something (Featuring Chris Stapleton)
[47-45-23-7-5]
----------------------------------------------------------------------------------------------------------------------------------
Image
06 08 05 Bruno Mars & Cardi BFinesse (Remix)
[37-17-7-8-6]
----------------------------------------------------------------------------------------------------------------------------------
Image
07 04 10 Jennifer HudsonBurden Down
[48-31-27-18-12-9-4-5-4-7]
----------------------------------------------------------------------------------------------------------------------------------
Image
08 24 03 Paloma FaithTil I'm Done
[43-24-8]
----------------------------------------------------------------------------------------------------------------------------------
Image
09 06 15 Nothing But ThievesParticles
[33-39-37-33-28-21-14-4-2-2-4-7-8-6-9]
----------------------------------------------------------------------------------------------------------------------------------
Image
10 11 07 Vance JoyWe're Going Home
[28-16-13-13-11-11-10]
----------------------------------------------------------------------------------------------------------------------------------
Image
11 12 08 Justin TimberlakeFilthy
[39-35-28-21-15-13-12-11]
----------------------------------------------------------------------------------------------------------------------------------
Image
12 13 11 BastilleWorld Gone Mad
[45-40-36-26-24-21-18-18-15-13-12]
----------------------------------------------------------------------------------------------------------------------------------
Image
13 09 10 KhalidSaved
[49-38-30-7-4-3-5-9-9-13]
----------------------------------------------------------------------------------------------------------------------------------
Image
14 14 10 SZA x Calvin HarrisThe Weekend (Funk Wav Remix)
[50-42-36-32-27-24-21-19-14-14]
----------------------------------------------------------------------------------------------------------------------------------
Image
15 16 03 James BayWild Love
[24-16-15]
----------------------------------------------------------------------------------------------------------------------------------
Image
16 10 07 Troye SivanMy My My!
[49-39-32-26-12-10-16]
----------------------------------------------------------------------------------------------------------------------------------
Image
17 21 05 Julia MichaelsHeaven
[48-44-34-21-17]
----------------------------------------------------------------------------------------------------------------------------------
Image
18 15 14 HalseyBad At Love
[50-46-41-34-28-20-18-13-9-8-11-14-15-18]
----------------------------------------------------------------------------------------------------------------------------------
Image
19 18 06 Jack WhiteConnected By Love
[8-5-8-10-18-19]
----------------------------------------------------------------------------------------------------------------------------------
Image
20 00 01 Imagine DragonsNext To Me
[20]
----------------------------------------------------------------------------------------------------------------------------------
Image
21 26 10 Portugal. The ManLive In The Moment
[41-40-37-30-29-30-32-28-26-21]
----------------------------------------------------------------------------------------------------------------------------------
Image
22 25 06 Rita OraAnywhere
[46-38-33-21-25-22]
----------------------------------------------------------------------------------------------------------------------------------
Image
23 20 11 James ArthurNaked
[35-23-23-20-15-10-10-14-17-20-23]
----------------------------------------------------------------------------------------------------------------------------------
Image
24 23 07 Hailee Steinfeld & BloodPop®Capital Letters
[33-31-26-23-20-23-24]
----------------------------------------------------------------------------------------------------------------------------------
Image
25 19 14 P!nkBeautiful Trauma
[15-4-1-1-2-2-1-1-3-6-10-16-19-25]
----------------------------------------------------------------------------------------------------------------------------------
Image
26 22 11 HAIMWalking Away
[40-30-18-10-6-6-7-12-18-22-26]
----------------------------------------------------------------------------------------------------------------------------------
Image
27 27 15 London GrammarHell To The Liars
[37-31-21-20-16-10-9-8-3-5-11-16-22-27-27]
----------------------------------------------------------------------------------------------------------------------------------
Image
28 28 08 James BlakeVincent
[50-40-37-35-28-26-28-28]
----------------------------------------------------------------------------------------------------------------------------------
Image
29 29 17 Emeli SandéHigher (Featuring Giggs)
[48-2-1-2-1-2-3-4-4-3-5-7-12-20-27-29-29]
----------------------------------------------------------------------------------------------------------------------------------
Image
30 17 19 Imagine DragonsWhatever It Takes
[28-17-13-15-23-19-19-26-30-35-30-21-4-1-1-3-6-17-30]
----------------------------------------------------------------------------------------------------------------------------------
Image
31 34 05 MigosStir Fry
[44-41-38-34-31]
----------------------------------------------------------------------------------------------------------------------------------
Image
32 32 10 The KillersRut
[39-34-33-26-24-25-24-29-32-32]
----------------------------------------------------------------------------------------------------------------------------------
Image
33 30 17 Paloma FaithGuilty
[21-17-15-7-7-6-7-9-7-7-10-11-14-19-25-30-33]
----------------------------------------------------------------------------------------------------------------------------------
Image
34 42 02 U2Get Out Of Your Own Way
[42-34]
----------------------------------------------------------------------------------------------------------------------------------
Image
35 36 04 Liam Payne & Rita OraFor You
[47-42-36-35]
----------------------------------------------------------------------------------------------------------------------------------
Image
36 33 06 Troye SivanThe Good Side
[41-41-38-36-33-36]
----------------------------------------------------------------------------------------------------------------------------------
Image
37 39 02 Maroon 5Wait
[39-37]
----------------------------------------------------------------------------------------------------------------------------------
Image
38 43 03 The Weeknd & Kendrick LamarPray For Me
[50-43-38]
----------------------------------------------------------------------------------------------------------------------------------
Image
39 37 06 Justin TimberlakeSupplies
[50-45-40-39-37-39]
----------------------------------------------------------------------------------------------------------------------------------
Image
40 50 02 Kendrick LamarLOVE. (Featuring Zacari)
[50-40]
----------------------------------------------------------------------------------------------------------------------------------
Image
41 35 17 Vance JoyLike Gold
[47-43-36-26-17-14-13-16-15-13-19-23-28-29-31-35-41]
----------------------------------------------------------------------------------------------------------------------------------
Image
42 31 06 Beth DittoI'm Alive
[36-34-34-32-31-42]
----------------------------------------------------------------------------------------------------------------------------------
Image
43 45 05 DrakeGod's Plan
[50-48-47-45-43]
----------------------------------------------------------------------------------------------------------------------------------
Image
44 40 15 U2The Blackout
[40-37-35-22-12-12-8-6-12-17-23-30-35-40-44]
----------------------------------------------------------------------------------------------------------------------------------
Image
45 00 01 EditorsHallelujah (So Low)
[45]
----------------------------------------------------------------------------------------------------------------------------------
Image
46 38 13 Sam SmithOne Last Song
[15-11-5-5-3-5-11-14-17-22-30-38-46]
----------------------------------------------------------------------------------------------------------------------------------
Image
47 48 15 Calum ScottYou Are The Reason
[3-1-2-3-6-6-5-11-14-19-27-35-45-48-47]
----------------------------------------------------------------------------------------------------------------------------------
Image
48 00 01 Tom WalkerLeave A Light On
[48]
----------------------------------------------------------------------------------------------------------------------------------
Image
49 41 12 Ed SheeranPerfect (Duet With Beyoncé)
[25-2-1-1-2-8-15-20-27-33-41-49]
----------------------------------------------------------------------------------------------------------------------------------
Image
50 44 15 U2You're The Best Thing About Me
[49-47 // 48 // 40-26-20-11-9-9-13-19-25-37-44-50]
----------------------------------------------------------------------------------------------------------------------------------
OUT
----------------------------------------------------------------------------------------------------------------------------------
46 20 P!nkWhatever You Want
[20-1-1-1-2-3-5-6-8-9-10-14-21-17-20-26-33-39-44-46]
----------------------------------------------------------------------------------------------------------------------------------
47 20 Sam SmithPray
[35-30-26-21-1-1-2-3-3-5-8-8-12-16-21-25-31-37-41-47]
----------------------------------------------------------------------------------------------------------------------------------
49 18 TexasCan't Control
[43-37-33-20-12-18-16-13-11-11-13-15-17-20-22-31-40-49]
----------------------------------------------------------------------------------------------------------------------------------
User avatar
LittleArsonist
Personal Assistant
 
Posts: 931
Joined: Wed Jan 14, 2004

Postby heppolo » Sat Feb 24, 2018 10:36 pm

45 00 01 Editors • Hallelujah (So Low)
48 00 01 Tom Walker • Leave A Light On

Great songs, love those new entries
Waffles are checked cookies
User avatar
heppolo
Legend
 
Posts: 22124
Joined: Sun May 17, 2009
Location: interchangeable

Postby LittleArsonist » Sat Mar 03, 2018 12:38 pm

TW LW WI
artist
track title
[chartrun]
----------------------------------------------------------------------------------------------------------------------------------
50:иgѕ (09/52) - week ending March 4
----------------------------------------------------------------------------------------------------------------------------------

----------------------------------------------------------------------------------------------------------------------------------
Image
01 02 09 Kendrick Lamar & SZAAll The Stars
[48-37-34-16-9-4-3-2-1]
----------------------------------------------------------------------------------------------------------------------------------
Image
02 01 06 Lady GagaJoanne (Where Do You Think You're Goin'?) (Piano Version)
[15-6-3-2-1-2]
----------------------------------------------------------------------------------------------------------------------------------
Image
03 20 02 Imagine DragonsNext To Me
[20-3]
----------------------------------------------------------------------------------------------------------------------------------
Image
04 03 05 P!nkWild Hearts Can't Be Broken
[2-1-1-3-4]
----------------------------------------------------------------------------------------------------------------------------------
Image
05 10 08 Vance JoyWe're Going Home
[28-16-13-13-11-11-10-5]
----------------------------------------------------------------------------------------------------------------------------------
Image
06 08 04 Paloma FaithTil I'm Done
[43-24-8-6]
----------------------------------------------------------------------------------------------------------------------------------
Image
07 05 06 Justin TimberlakeSay Something (Featuring Chris Stapleton)
[47-45-23-7-5-7]
----------------------------------------------------------------------------------------------------------------------------------
Image
08 04 07 G-Eazy & HalseyHim & I
[18-2-1-2-5-4-8]
----------------------------------------------------------------------------------------------------------------------------------
Image
09 06 06 Bruno Mars & Cardi BFinesse (Remix)
[37-17-7-8-6-9]
----------------------------------------------------------------------------------------------------------------------------------
Image
10 07 11 Jennifer HudsonBurden Down
[48-31-27-18-12-9-4-5-4-7-10]
----------------------------------------------------------------------------------------------------------------------------------
Image
11 15 04 James BayWild Love
[24-16-15-11]
----------------------------------------------------------------------------------------------------------------------------------
Image
12 17 06 Julia MichaelsHeaven
[48-44-34-21-17-12]
----------------------------------------------------------------------------------------------------------------------------------
Image
13 00 01 Sarah BlaskoA Shot
[13]
----------------------------------------------------------------------------------------------------------------------------------
Image
14 12 12 BastilleWorld Gone Mad
[45-40-36-26-24-21-18-18-15-13-12-14]
----------------------------------------------------------------------------------------------------------------------------------
Image
15 09 16 Nothing But ThievesParticles
[33-39-37-33-28-21-14-4-2-2-4-7-8-6-9-15]
----------------------------------------------------------------------------------------------------------------------------------
Image
16 13 11 KhalidSaved
[49-38-30-7-4-3-5-9-9-13-16]
----------------------------------------------------------------------------------------------------------------------------------
Image
17 11 09 Justin TimberlakeFilthy
[39-35-28-21-15-13-12-11-17]
----------------------------------------------------------------------------------------------------------------------------------
Image
18 14 11 SZA x Calvin HarrisThe Weekend (Funk Wav Remix)
[50-42-36-32-27-24-21-19-14-14-18]
----------------------------------------------------------------------------------------------------------------------------------
Image
19 00 01 Sarah BlaskoNever Let Me Go
[19]
----------------------------------------------------------------------------------------------------------------------------------
Image
20 16 08 Troye SivanMy My My!
[49-39-32-26-12-10-16-20]
----------------------------------------------------------------------------------------------------------------------------------
Image
21 40 03 Kendrick LamarLOVE. (Featuring Zacari)
[50-40-21]
----------------------------------------------------------------------------------------------------------------------------------
Image
22 38 04 The Weeknd & Kendrick LamarPray For Me
[50-43-38-22]
----------------------------------------------------------------------------------------------------------------------------------
Image
23 21 11 Portugal. The ManLive In The Moment
[41-40-37-30-29-30-32-28-26-21-23]
----------------------------------------------------------------------------------------------------------------------------------
Image
24 18 15 HalseyBad At Love
[50-46-41-34-28-20-18-13-9-8-11-14-15-18-24]
----------------------------------------------------------------------------------------------------------------------------------
Image
25 23 12 James ArthurNaked
[35-23-23-20-15-10-10-14-17-20-23-25]
----------------------------------------------------------------------------------------------------------------------------------
Image
26 31 06 MigosStir Fry
[44-41-38-34-31-26]
----------------------------------------------------------------------------------------------------------------------------------
Image
27 24 08 Hailee Steinfeld & BloodPop®Capital Letters
[33-31-26-23-20-23-24-27]
----------------------------------------------------------------------------------------------------------------------------------
Image
28 22 07 Rita OraAnywhere
[46-38-33-21-25-22-28]
----------------------------------------------------------------------------------------------------------------------------------
Image
29 34 03 U2Get Out Of Your Own Way
[42-34-29]
----------------------------------------------------------------------------------------------------------------------------------
Image
30 19 07 Jack WhiteConnected By Love
[8-5-8-10-18-19-30]
----------------------------------------------------------------------------------------------------------------------------------
Image
31 26 12 HAIMWalking Away
[40-30-18-10-6-6-7-12-18-22-26-31]
----------------------------------------------------------------------------------------------------------------------------------
Image
32 25 15 P!nkBeautiful Trauma
[15-4-1-1-2-2-1-1-3-6-10-16-19-25-32]
----------------------------------------------------------------------------------------------------------------------------------
Image
33 27 16 London GrammarHell To The Liars
[37-31-21-20-16-10-9-8-3-5-11-16-22-27-27-33]
----------------------------------------------------------------------------------------------------------------------------------
Image
34 37 03 Maroon 5Wait
[39-37-34]
----------------------------------------------------------------------------------------------------------------------------------
Image
35 29 18 Emeli SandéHigher (Featuring Giggs)
[48-2-1-2-1-2-3-4-4-3-5-7-12-20-27-29-29-35]
----------------------------------------------------------------------------------------------------------------------------------
Image
36 30 20 Imagine DragonsWhatever It Takes
[28-17-13-15-23-19-19-26-30-35-30-21-4-1-1-3-6-17-30-36]
----------------------------------------------------------------------------------------------------------------------------------
Image
37 28 09 James BlakeVincent
[50-40-37-35-28-26-28-28-37]
----------------------------------------------------------------------------------------------------------------------------------
Image
38 32 11 The KillersRut
[39-34-33-26-24-25-24-29-32-32-38]
----------------------------------------------------------------------------------------------------------------------------------
Image
39 48 02 Tom WalkerLeave A Light On
[48-39]
----------------------------------------------------------------------------------------------------------------------------------
Image
40 33 18 Paloma FaithGuilty
[21-17-15-7-7-6-7-9-7-7-10-11-14-19-25-30-33-40]
----------------------------------------------------------------------------------------------------------------------------------
Image
41 35 05 Liam Payne & Rita OraFor You
[47-42-36-35-41]
----------------------------------------------------------------------------------------------------------------------------------
Image
42 43 06 DrakeGod's Plan
[50-48-47-45-43-42]
----------------------------------------------------------------------------------------------------------------------------------
Image
43 45 02 EditorsHallelujah (So Low)
[45-43]
----------------------------------------------------------------------------------------------------------------------------------
Image
44 00 01 Janelle MonáeMake Me Feel
[44]
----------------------------------------------------------------------------------------------------------------------------------
Image
45 47 16 Calum ScottYou Are The Reason
[3-1-2-3-6-6-5-11-14-19-27-35-45-48-47-45]
----------------------------------------------------------------------------------------------------------------------------------
Image
46 36 07 Troye SivanThe Good Side
[41-41-38-36-33-36-46]
----------------------------------------------------------------------------------------------------------------------------------
Image
47 39 07 Justin TimberlakeSupplies
[50-45-40-39-37-39-47]
----------------------------------------------------------------------------------------------------------------------------------
Image
48 46 14 Sam SmithOne Last Song
[15-11-5-5-3-5-11-14-17-22-30-38-46-48]
----------------------------------------------------------------------------------------------------------------------------------
Image
49 44 16 U2The Blackout
[40-37-35-22-12-12-8-6-12-17-23-30-35-40-44-49]
----------------------------------------------------------------------------------------------------------------------------------
Image
50 41 18 Vance JoyLike Gold
[47-43-36-26-17-14-13-16-15-13-19-23-28-29-31-35-41-50]
----------------------------------------------------------------------------------------------------------------------------------
OUT
----------------------------------------------------------------------------------------------------------------------------------
42 06 Beth DittoI'm Alive
[36-34-34-32-31-42]
----------------------------------------------------------------------------------------------------------------------------------
49 12 Ed SheeranPerfect (Duet With Beyoncé)
[25-2-1-1-2-8-15-20-27-33-41-49]
----------------------------------------------------------------------------------------------------------------------------------
50 15 U2You're The Best Thing About Me
[49-47 // 48 // 40-26-20-11-9-9-13-19-25-37-44-50]
----------------------------------------------------------------------------------------------------------------------------------
User avatar
LittleArsonist
Personal Assistant
 
Posts: 931
Joined: Wed Jan 14, 2004

Postby leomedar » Sat Mar 03, 2018 12:54 pm

Nice discovery of Sarah Blasko! Adding _Never Let Me Go to my playlist now
User avatar
leomedar
Legend
 
Posts: 12656
Joined: Mon Nov 12, 2012
Location: Buenos Aires, Argentina

Postby LittleArsonist » Sat Mar 03, 2018 1:42 pm

leomedar wrote:Nice discovery of Sarah Blasko! Adding _Never Let Me Go to my playlist now
her new album, out this week, is A BOMB :wink:
User avatar
LittleArsonist
Personal Assistant
 
Posts: 931
Joined: Wed Jan 14, 2004

Postby LittleArsonist » Sat Mar 10, 2018 5:41 pm

TW LW WI
artist
track title
[chartrun]
----------------------------------------------------------------------------------------------------------------------------------
50:иgѕ (10/52) - week ending March 11
----------------------------------------------------------------------------------------------------------------------------------

----------------------------------------------------------------------------------------------------------------------------------
Image
01 01 10 Kendrick Lamar & SZAAll The Stars
[48-37-34-16-9-4-3-2-1-1]
----------------------------------------------------------------------------------------------------------------------------------
Image
02 03 03 Imagine DragonsNext To Me
[20-3-2]
----------------------------------------------------------------------------------------------------------------------------------
Image
03 02 07 Lady GagaJoanne (Where Do You Think You're Goin'?) (Piano Version)
[15-6-3-2-1-2-3]
----------------------------------------------------------------------------------------------------------------------------------
Image
04 04 06 P!nkWild Hearts Can't Be Broken
[2-1-1-3-4-4]
----------------------------------------------------------------------------------------------------------------------------------
Image
05 05 09 Vance JoyWe're Going Home
[28-16-13-13-11-11-10-5-5]
----------------------------------------------------------------------------------------------------------------------------------
Image
06 13 02 Sarah BlaskoA Shot
[13-6]
----------------------------------------------------------------------------------------------------------------------------------
Image
07 06 05 Paloma FaithTil I'm Done
[43-24-8-6-7]
----------------------------------------------------------------------------------------------------------------------------------
Image
08 12 07 Julia MichaelsHeaven
[48-44-34-21-17-12-8]
----------------------------------------------------------------------------------------------------------------------------------
Image
09 08 08 G-Eazy & HalseyHim & I
[18-2-1-2-5-4-8-9]
----------------------------------------------------------------------------------------------------------------------------------
Image
10 07 07 Justin TimberlakeSay Something (Featuring Chris Stapleton)
[47-45-23-7-5-7-10]
----------------------------------------------------------------------------------------------------------------------------------
Image
11 22 05 The Weeknd & Kendrick LamarPray For Me
[50-43-38-22-11]
----------------------------------------------------------------------------------------------------------------------------------
Image
12 10 12 Jennifer HudsonBurden Down
[48-31-27-18-12-9-4-5-4-7-10-12]
----------------------------------------------------------------------------------------------------------------------------------
Image
13 21 04 Kendrick LamarLOVE. (Featuring Zacari)
[50-40-21-13]
----------------------------------------------------------------------------------------------------------------------------------
Image
14 09 07 Bruno Mars & Cardi BFinesse (Remix)
[37-17-7-8-6-9-14]
----------------------------------------------------------------------------------------------------------------------------------
Image
15 11 05 James BayWild Love
[24-16-15-11-15]
----------------------------------------------------------------------------------------------------------------------------------
Image
16 19 02 Sarah BlaskoNever Let Me Go
[19-16]
----------------------------------------------------------------------------------------------------------------------------------
Image
17 14 13 BastilleWorld Gone Mad
[45-40-36-26-24-21-18-18-15-13-12-14-17]
----------------------------------------------------------------------------------------------------------------------------------
Image
18 16 12 KhalidSaved
[49-38-30-7-4-3-5-9-9-13-16-18]
----------------------------------------------------------------------------------------------------------------------------------
Image
19 18 12 SZA x Calvin HarrisThe Weekend (Funk Wav Remix)
[50-42-36-32-27-24-21-19-14-14-18-19]
----------------------------------------------------------------------------------------------------------------------------------
Image
20 29 04 U2Get Out Of Your Own Way
[42-34-29-20]
----------------------------------------------------------------------------------------------------------------------------------
Image
21 15 17 Nothing But ThievesParticles
[33-39-37-33-28-21-14-4-2-2-4-7-8-6-9-15-21]
----------------------------------------------------------------------------------------------------------------------------------
Image
22 17 10 Justin TimberlakeFilthy
[39-35-28-21-15-13-12-11-17-22]
----------------------------------------------------------------------------------------------------------------------------------
Image
23 20 09 Troye SivanMy My My!
[49-39-32-26-12-10-16-20-23]
----------------------------------------------------------------------------------------------------------------------------------
Image
24 39 03 Tom WalkerLeave A Light On
[48-39-24]
----------------------------------------------------------------------------------------------------------------------------------
Image
25 23 12 Portugal. The ManLive In The Moment
[41-40-37-30-29-30-32-28-26-21-23-25]
----------------------------------------------------------------------------------------------------------------------------------
Image
26 24 16 HalseyBad At Love
[50-46-41-34-28-20-18-13-9-8-11-14-15-18-24-26]
----------------------------------------------------------------------------------------------------------------------------------
Image
27 26 07 MigosStir Fry
[44-41-38-34-31-26-27]
----------------------------------------------------------------------------------------------------------------------------------
Image
28 28 08 Rita OraAnywhere
[46-38-33-21-25-22-28-28]
----------------------------------------------------------------------------------------------------------------------------------
Image
29 25 13 James ArthurNaked
[35-23-23-20-15-10-10-14-17-20-23-25-29]
----------------------------------------------------------------------------------------------------------------------------------
Image
30 44 02 Janelle MonáeMake Me Feel
[44-30]
----------------------------------------------------------------------------------------------------------------------------------
Image
31 34 04 Maroon 5Wait
[39-37-34-31]
----------------------------------------------------------------------------------------------------------------------------------
Image
32 27 09 Hailee Steinfeld & BloodPop®Capital Letters
[33-31-26-23-20-23-24-27-32]
----------------------------------------------------------------------------------------------------------------------------------
Image
33 31 13 HAIMWalking Away
[40-30-18-10-6-6-7-12-18-22-26-31-33]
----------------------------------------------------------------------------------------------------------------------------------
Image
34 00 01 James BayPink Lemonade
[34]
----------------------------------------------------------------------------------------------------------------------------------
Image
35 45 17 Calum ScottYou Are The Reason
[3-1-2-3-6-6-5-11-14-19-27-35-45-48-47-45-35]
----------------------------------------------------------------------------------------------------------------------------------
Image
36 30 08 Jack WhiteConnected By Love
[8-5-8-10-18-19-30-36]
----------------------------------------------------------------------------------------------------------------------------------
Image
37 00 01 Lisa StansfieldBillionaire
[37]
----------------------------------------------------------------------------------------------------------------------------------
Image
38 32 16 P!nkBeautiful Trauma
[15-4-1-1-2-2-1-1-3-6-10-16-19-25-32-38]
----------------------------------------------------------------------------------------------------------------------------------
Image
39 43 03 EditorsHallelujah (So Low)
[45-43-39]
----------------------------------------------------------------------------------------------------------------------------------
Image
40 38 12 The KillersRut
[39-34-33-26-24-25-24-29-32-32-38-40]
----------------------------------------------------------------------------------------------------------------------------------
Image
41 33 17 London GrammarHell To The Liars
[37-31-21-20-16-10-9-8-3-5-11-16-22-27-27-33-41]
----------------------------------------------------------------------------------------------------------------------------------
Image
42 00 01 SadeFlower Of The Universe
[42]
----------------------------------------------------------------------------------------------------------------------------------
Image
43 35 19 Emeli SandéHigher (Featuring Giggs)
[48-2-1-2-1-2-3-4-4-3-5-7-12-20-27-29-29-35-43]
----------------------------------------------------------------------------------------------------------------------------------
Image
44 37 10 James BlakeVincent
[50-40-37-35-28-26-28-28-37-44]
----------------------------------------------------------------------------------------------------------------------------------
Image
45 40 19 Paloma FaithGuilty
[21-17-15-7-7-6-7-9-7-7-10-11-14-19-25-30-33-40-45]
----------------------------------------------------------------------------------------------------------------------------------
Image
46 50 19 Vance JoyLike Gold
[47-43-36-26-17-14-13-16-15-13-19-23-28-29-31-35-41-50-46]
----------------------------------------------------------------------------------------------------------------------------------
Image
47 41 06 Liam Payne & Rita OraFor You
[47-42-36-35-41-47]
----------------------------------------------------------------------------------------------------------------------------------
Image
48 42 07 DrakeGod's Plan
[50-48-47-45-43-42-48]
----------------------------------------------------------------------------------------------------------------------------------
Image
49 00 01 Paloma FaithMake Your Own Kind Of Music
[49]
----------------------------------------------------------------------------------------------------------------------------------
Image
50 00 01 Kylie MinogueStop Me From Falling
[50]
----------------------------------------------------------------------------------------------------------------------------------
OUT
----------------------------------------------------------------------------------------------------------------------------------
36 20 Imagine DragonsWhatever It Takes
[28-17-13-15-23-19-19-26-30-35-30-21-4-1-1-3-6-17-30-36]
----------------------------------------------------------------------------------------------------------------------------------
46 07 Troye SivanThe Good Side
[41-41-38-36-33-36-46]
----------------------------------------------------------------------------------------------------------------------------------
47 07 Justin TimberlakeSupplies
[50-45-40-39-37-39-47]
----------------------------------------------------------------------------------------------------------------------------------
48 14 Sam SmithOne Last Song
[15-11-5-5-3-5-11-14-17-22-30-38-46-48]
----------------------------------------------------------------------------------------------------------------------------------
49 16 U2The Blackout
[40-37-35-22-12-12-8-6-12-17-23-30-35-40-44-49]
----------------------------------------------------------------------------------------------------------------------------------
User avatar
LittleArsonist
Personal Assistant
 
Posts: 931
Joined: Wed Jan 14, 2004

Postby heppolo » Sat Mar 10, 2018 6:23 pm

16 19 02 Sarah Blasko • Never Let Me Go
[19-16]

A very good song, so heartfelt.
Waffles are checked cookies
User avatar
heppolo
Legend
 
Posts: 22124
Joined: Sun May 17, 2009
Location: interchangeable

Postby LittleArsonist » Sat Mar 17, 2018 5:06 pm

TW LW WI
artist
track title
[chartrun]
----------------------------------------------------------------------------------------------------------------------------------
50:иgѕ (11/52) - week ending March 18
----------------------------------------------------------------------------------------------------------------------------------

----------------------------------------------------------------------------------------------------------------------------------
Image
01 02 04 Imagine DragonsNext To Me
[20-3-2-1]
----------------------------------------------------------------------------------------------------------------------------------
Image
02 01 11 Kendrick Lamar & SZAAll The Stars
[48-37-34-16-9-4-3-2-1-1-2]
----------------------------------------------------------------------------------------------------------------------------------
Image
03 03 08 Lady GagaJoanne (Where Do You Think You're Goin'?) (Piano Version)
[15-6-3-2-1-2-3-3]
----------------------------------------------------------------------------------------------------------------------------------
Image
04 00 01 Ed SheeranSupermarket Flowers
[4]
----------------------------------------------------------------------------------------------------------------------------------
Image
05 04 07 P!nkWild Hearts Can't Be Broken
[2-1-1-3-4-4-5]
----------------------------------------------------------------------------------------------------------------------------------
Image
06 06 03 Sarah BlaskoA Shot
[13-6-6]
----------------------------------------------------------------------------------------------------------------------------------
Image
07 05 10 Vance JoyWe're Going Home
[28-16-13-13-11-11-10-5-5-7]
----------------------------------------------------------------------------------------------------------------------------------
Image
08 11 06 The Weeknd & Kendrick LamarPray For Me
[50-43-38-22-11-8]
----------------------------------------------------------------------------------------------------------------------------------
Image
09 07 06 Paloma FaithTil I'm Done
[43-24-8-6-7-9]
----------------------------------------------------------------------------------------------------------------------------------
Image
10 08 08 Julia MichaelsHeaven
[48-44-34-21-17-12-8-10]
----------------------------------------------------------------------------------------------------------------------------------
Image
11 13 05 Kendrick LamarLOVE. (Featuring Zacari)
[50-40-21-13-11]
----------------------------------------------------------------------------------------------------------------------------------
Image
12 09 09 G-Eazy & HalseyHim & I
[18-2-1-2-5-4-8-9-12]
----------------------------------------------------------------------------------------------------------------------------------
Image
13 16 03 Sarah BlaskoNever Let Me Go
[19-16-13]
----------------------------------------------------------------------------------------------------------------------------------
Image
14 14 08 Bruno Mars & Cardi BFinesse (Remix)
[37-17-7-8-6-9-14-14]
----------------------------------------------------------------------------------------------------------------------------------
Image
15 12 13 Jennifer HudsonBurden Down
[48-31-27-18-12-9-4-5-4-7-10-12-15]
----------------------------------------------------------------------------------------------------------------------------------
Image
16 20 05 U2Get Out Of Your Own Way
[42-34-29-20-16]
----------------------------------------------------------------------------------------------------------------------------------
Image
17 10 08 Justin TimberlakeSay Something (Featuring Chris Stapleton)
[47-45-23-7-5-7-10-17]
----------------------------------------------------------------------------------------------------------------------------------
Image
18 15 06 James BayWild Love
[24-16-15-11-15-18]
----------------------------------------------------------------------------------------------------------------------------------
Image
19 17 14 BastilleWorld Gone Mad
[45-40-36-26-24-21-18-18-15-13-12-14-17-19]
----------------------------------------------------------------------------------------------------------------------------------
Image
20 00 01 Dua LipaIDGAF
[20]
----------------------------------------------------------------------------------------------------------------------------------
Image
21 19 13 SZA x Calvin HarrisThe Weekend (Funk Wav Remix)
[50-42-36-32-27-24-21-19-14-14-18-19-21]
----------------------------------------------------------------------------------------------------------------------------------
Image
22 30 03 Janelle MonáeMake Me Feel
[44-30-22]
----------------------------------------------------------------------------------------------------------------------------------
Image
23 24 04 Tom WalkerLeave A Light On
[48-39-24-23]
----------------------------------------------------------------------------------------------------------------------------------
Image
24 18 13 KhalidSaved
[49-38-30-7-4-3-5-9-9-13-16-18-24]
----------------------------------------------------------------------------------------------------------------------------------
Image
25 37 02 Lisa StansfieldBillionaire
[37-25]
----------------------------------------------------------------------------------------------------------------------------------
Image
26 21 18 Nothing But ThievesParticles
[33-39-37-33-28-21-14-4-2-2-4-7-8-6-9-15-21-26]
----------------------------------------------------------------------------------------------------------------------------------
Image
27 34 02 James BayPink Lemonade
[34-27]
----------------------------------------------------------------------------------------------------------------------------------
Image
28 25 13 Portugal. The ManLive In The Moment
[41-40-37-30-29-30-32-28-26-21-23-25-28]
----------------------------------------------------------------------------------------------------------------------------------
Image
29 23 10 Troye SivanMy My My!
[49-39-32-26-12-10-16-20-23-29]
----------------------------------------------------------------------------------------------------------------------------------
Image
30 26 17 HalseyBad At Love
[50-46-41-34-28-20-18-13-9-8-11-14-15-18-24-26-30]
----------------------------------------------------------------------------------------------------------------------------------
Image
31 35 18 Calum ScottYou Are The Reason
[3-1-2-3-6-6-5-11-14-19-27-35-45-48-47-45-35-31]
----------------------------------------------------------------------------------------------------------------------------------
Image
32 00 01 HalseyAlone
[32]
----------------------------------------------------------------------------------------------------------------------------------
Image
33 27 08 MigosStir Fry
[44-41-38-34-31-26-27-33]
----------------------------------------------------------------------------------------------------------------------------------
Image
34 31 05 Maroon 5Wait
[39-37-34-31-34]
----------------------------------------------------------------------------------------------------------------------------------
Image
35 22 11 Justin TimberlakeFilthy
[39-35-28-21-15-13-12-11-17-22-35]
----------------------------------------------------------------------------------------------------------------------------------
Image
36 28 09 Rita OraAnywhere
[46-38-33-21-25-22-28-28-36]
----------------------------------------------------------------------------------------------------------------------------------
Image
37 00 01 Vance JoyCall If You Need Me
[37]
----------------------------------------------------------------------------------------------------------------------------------
Image
38 29 14 James ArthurNaked
[35-23-23-20-15-10-10-14-17-20-23-25-29-38]
----------------------------------------------------------------------------------------------------------------------------------
Image
39 33 14 HAIMWalking Away
[40-30-18-10-6-6-7-12-18-22-26-31-33-39]
----------------------------------------------------------------------------------------------------------------------------------
Image
40 39 04 EditorsHallelujah (So Low)
[45-43-39-40]
----------------------------------------------------------------------------------------------------------------------------------
Image
41 00 01 Arcade FirePut Your Money On Me
[41]
----------------------------------------------------------------------------------------------------------------------------------
Image
42 32 10 Hailee Steinfeld & BloodPop®Capital Letters
[33-31-26-23-20-23-24-27-32-42]
----------------------------------------------------------------------------------------------------------------------------------
Image
43 38 17 P!nkBeautiful Trauma
[15-4-1-1-2-2-1-1-3-6-10-16-19-25-32-38-43]
----------------------------------------------------------------------------------------------------------------------------------
Image
44 42 02 SadeFlower Of The Universe
[42-44]
----------------------------------------------------------------------------------------------------------------------------------
Image
45 40 13 The KillersRut
[39-34-33-26-24-25-24-29-32-32-38-40-45]
----------------------------------------------------------------------------------------------------------------------------------
Image
46 36 09 Jack WhiteConnected By Love
[8-5-8-10-18-19-30-36-46]
----------------------------------------------------------------------------------------------------------------------------------
Image
47 00 01 MuseThought Contagion
[47]
----------------------------------------------------------------------------------------------------------------------------------
Image
48 41 18 London GrammarHell To The Liars
[37-31-21-20-16-10-9-8-3-5-11-16-22-27-27-33-41-48]
----------------------------------------------------------------------------------------------------------------------------------
Image
49 43 20 Emeli SandéHigher (Featuring Giggs)
[48-2-1-2-1-2-3-4-4-3-5-7-12-20-27-29-29-35-43-49]
----------------------------------------------------------------------------------------------------------------------------------
Image
50 45 20 Paloma FaithGuilty
[21-17-15-7-7-6-7-9-7-7-10-11-14-19-25-30-33-40-45-50]
----------------------------------------------------------------------------------------------------------------------------------
OUT
----------------------------------------------------------------------------------------------------------------------------------
44 10 James BlakeVincent
[50-40-37-35-28-26-28-28-37-44]
----------------------------------------------------------------------------------------------------------------------------------
46 19 Vance JoyLike Gold
[47-43-36-26-17-14-13-16-15-13-19-23-28-29-31-35-41-50-46]
----------------------------------------------------------------------------------------------------------------------------------
47 06 Liam Payne & Rita OraFor You
[47-42-36-35-41-47]
----------------------------------------------------------------------------------------------------------------------------------
48 07 DrakeGod's Plan
[50-48-47-45-43-42-48]
----------------------------------------------------------------------------------------------------------------------------------
49 01 Paloma FaithMake Your Own Kind Of Music
[49]
----------------------------------------------------------------------------------------------------------------------------------
50 01 Kylie MinogueStop Me From Falling
[50]
----------------------------------------------------------------------------------------------------------------------------------
User avatar
LittleArsonist
Personal Assistant
 
Posts: 931
Joined: Wed Jan 14, 2004

Postby heppolo » Sat Mar 17, 2018 7:13 pm

47 00 01 Muse • Thought Contagion
[47]

It's a good enough song, but I am yet to hear any real revelations from them ever since...2008-2009, I guess
Waffles are checked cookies
User avatar
heppolo
Legend
 
Posts: 22124
Joined: Sun May 17, 2009
Location: interchangeable

Postby LittleArsonist » Tue Mar 27, 2018 10:16 am

heppolo wrote:47 00 01 Muse • Thought Contagion
[47]

It's a good enough song, but I am yet to hear any real revelations from them ever since...2008-2009, I guess
I do agree with you. They reached their pick around those years.
User avatar
LittleArsonist
Personal Assistant
 
Posts: 931
Joined: Wed Jan 14, 2004

Postby LittleArsonist » Tue Mar 27, 2018 11:04 am

TW LW WI
artist
track title
[chartrun]
----------------------------------------------------------------------------------------------------------------------------------
50:иgѕ (12/52) - week ending March 25
----------------------------------------------------------------------------------------------------------------------------------

----------------------------------------------------------------------------------------------------------------------------------
Image
01 01 05 Imagine DragonsNext To Me
[20-3-2-1-1]
----------------------------------------------------------------------------------------------------------------------------------
Image
02 00 01 Snow PatrolDon't Give In
[2]
----------------------------------------------------------------------------------------------------------------------------------
Image
03 04 02 Ed SheeranSupermarket Flowers
[4-3]
----------------------------------------------------------------------------------------------------------------------------------
Image
04 02 12 Kendrick Lamar & SZAAll The Stars
[48-37-34-16-9-4-3-2-1-1-2-4]
----------------------------------------------------------------------------------------------------------------------------------
Image
05 08 07 The Weeknd & Kendrick LamarPray For Me
[50-43-38-22-11-8-5]
----------------------------------------------------------------------------------------------------------------------------------
Image
06 03 09 Lady GagaJoanne (Where Do You Think You're Goin'?) (Piano Version)
[15-6-3-2-1-2-3-3-6]
----------------------------------------------------------------------------------------------------------------------------------
Image
07 06 04 Sarah BlaskoA Shot
[13-6-6-7]
----------------------------------------------------------------------------------------------------------------------------------
Image
08 05 08 P!nkWild Hearts Can't Be Broken
[2-1-1-3-4-4-5-8]
----------------------------------------------------------------------------------------------------------------------------------
Image
09 07 11 Vance JoyWe're Going Home
[28-16-13-13-11-11-10-5-5-7-9]
----------------------------------------------------------------------------------------------------------------------------------
Image
10 13 04 Sarah BlaskoNever Let Me Go
[19-16-13-10]
----------------------------------------------------------------------------------------------------------------------------------
Image
11 11 06 Kendrick LamarLOVE. (Featuring Zacari)
[50-40-21-13-11-11]
----------------------------------------------------------------------------------------------------------------------------------
Image
12 09 07 Paloma FaithTil I'm Done
[43-24-8-6-7-9-12]
----------------------------------------------------------------------------------------------------------------------------------
Image
13 10 09 Julia MichaelsHeaven
[48-44-34-21-17-12-8-10-13]
----------------------------------------------------------------------------------------------------------------------------------
Image
14 12 10 G-Eazy & HalseyHim & I
[18-2-1-2-5-4-8-9-12-14]
----------------------------------------------------------------------------------------------------------------------------------
Image
15 20 02 Dua LipaIDGAF
[20-15]
----------------------------------------------------------------------------------------------------------------------------------
Image
16 16 06 U2Get Out Of Your Own Way
[42-34-29-20-16-16]
----------------------------------------------------------------------------------------------------------------------------------
Image
17 27 03 James BayPink Lemonade
[34-27-17]
----------------------------------------------------------------------------------------------------------------------------------
Image
18 14 09 Bruno Mars & Cardi BFinesse (Remix)
[37-17-7-8-6-9-14-14-18]
----------------------------------------------------------------------------------------------------------------------------------
Image
19 15 14 Jennifer HudsonBurden Down
[48-31-27-18-12-9-4-5-4-7-10-12-15-19]
----------------------------------------------------------------------------------------------------------------------------------
Image
20 18 07 James BayWild Love
[24-16-15-11-15-18-20]
----------------------------------------------------------------------------------------------------------------------------------
Image
21 22 04 Janelle MonáeMake Me Feel
[44-30-22-21]
----------------------------------------------------------------------------------------------------------------------------------
Image
22 17 09 Justin TimberlakeSay Something (Featuring Chris Stapleton)
[47-45-23-7-5-7-10-17-22]
----------------------------------------------------------------------------------------------------------------------------------
Image
23 25 03 Lisa StansfieldBillionaire
[37-25-23]
----------------------------------------------------------------------------------------------------------------------------------
Image
24 19 15 BastilleWorld Gone Mad
[45-40-36-26-24-21-18-18-15-13-12-14-17-19-24]
----------------------------------------------------------------------------------------------------------------------------------
Image
25 23 05 Tom WalkerLeave A Light On
[48-39-24-23-25]
----------------------------------------------------------------------------------------------------------------------------------
Image
26 32 02 HalseyAlone
[32-26]
----------------------------------------------------------------------------------------------------------------------------------
Image
27 21 14 SZA x Calvin HarrisThe Weekend (Funk Wav Remix)
[50-42-36-32-27-24-21-19-14-14-18-19-21-27]
----------------------------------------------------------------------------------------------------------------------------------
Image
28 24 14 KhalidSaved
[49-38-30-7-4-3-5-9-9-13-16-18-24-28]
----------------------------------------------------------------------------------------------------------------------------------
Image
29 37 02 Vance JoyCall If You Need Me
[37-29]
----------------------------------------------------------------------------------------------------------------------------------
Image
30 28 14 Portugal. The ManLive In The Moment
[41-40-37-30-29-30-32-28-26-21-23-25-28-30]
----------------------------------------------------------------------------------------------------------------------------------
Image
31 33 09 MigosStir Fry
[44-41-38-34-31-26-27-33-31]
----------------------------------------------------------------------------------------------------------------------------------
Image
32 26 19 Nothing But ThievesParticles
[33-39-37-33-28-21-14-4-2-2-4-7-8-6-9-15-21-26-32]
----------------------------------------------------------------------------------------------------------------------------------
Image
33 40 05 EditorsHallelujah (So Low)
[45-43-39-40-33]
----------------------------------------------------------------------------------------------------------------------------------
Image
34 30 18 HalseyBad At Love
[50-46-41-34-28-20-18-13-9-8-11-14-15-18-24-26-30-34]
----------------------------------------------------------------------------------------------------------------------------------
Image
35 41 02 Arcade FirePut Your Money On Me
[41-35]
----------------------------------------------------------------------------------------------------------------------------------
Image
36 39 15 HAIMWalking Away
[40-30-18-10-6-6-7-12-18-22-26-31-33-39-36]
----------------------------------------------------------------------------------------------------------------------------------
Image
37 29 11 Troye SivanMy My My!
[49-39-32-26-12-10-16-20-23-29-37]
----------------------------------------------------------------------------------------------------------------------------------
Image
38 34 06 Maroon 5Wait
[39-37-34-31-34-38]
----------------------------------------------------------------------------------------------------------------------------------
Image
39 31 19 Calum ScottYou Are The Reason
[3-1-2-3-6-6-5-11-14-19-27-35-45-48-47-45-35-31-39]
----------------------------------------------------------------------------------------------------------------------------------
Image
40 00 01 Kelly ClarksonI Don't Think About You
[40]
----------------------------------------------------------------------------------------------------------------------------------
Image
41 47 02 MuseThought Contagion
[47-41]
----------------------------------------------------------------------------------------------------------------------------------
Image
42 38 15 James ArthurNaked
[35-23-23-20-15-10-10-14-17-20-23-25-29-38-42]
----------------------------------------------------------------------------------------------------------------------------------
Image
43 44 03 SadeFlower Of The Universe
[42-44-43]
----------------------------------------------------------------------------------------------------------------------------------
Image
44 35 12 Justin TimberlakeFilthy
[39-35-28-21-15-13-12-11-17-22-35-44]
----------------------------------------------------------------------------------------------------------------------------------
Image
45 00 01 Shawn MendesIn My Blood
[45]
----------------------------------------------------------------------------------------------------------------------------------
Image
46 36 10 Rita OraAnywhere
[46-38-33-21-25-22-28-28-36-46]
----------------------------------------------------------------------------------------------------------------------------------
Image
47 43 18 P!nkBeautiful Trauma
[15-4-1-1-2-2-1-1-3-6-10-16-19-25-32-38-43-47]
----------------------------------------------------------------------------------------------------------------------------------
Image
48 45 14 The KillersRut
[39-34-33-26-24-25-24-29-32-32-38-40-45-48]
----------------------------------------------------------------------------------------------------------------------------------
Image
49 42 11 Hailee Steinfeld & BloodPop®Capital Letters
[33-31-26-23-20-23-24-27-32-42-49]
----------------------------------------------------------------------------------------------------------------------------------
Image
50 00 01 George EzraParadise
[50]
----------------------------------------------------------------------------------------------------------------------------------
OUT
----------------------------------------------------------------------------------------------------------------------------------
46 09 Jack WhiteConnected By Love
[8-5-8-10-18-19-30-36-46]
----------------------------------------------------------------------------------------------------------------------------------
48 18 London GrammarHell To The Liars
[37-31-21-20-16-10-9-8-3-5-11-16-22-27-27-33-41-48]
----------------------------------------------------------------------------------------------------------------------------------
49 20 Emeli SandéHigher (Featuring Giggs)
[48-2-1-2-1-2-3-4-4-3-5-7-12-20-27-29-29-35-43-49]
----------------------------------------------------------------------------------------------------------------------------------
50 20 Paloma FaithGuilty
[21-17-15-7-7-6-7-9-7-7-10-11-14-19-25-30-33-40-45-50]
----------------------------------------------------------------------------------------------------------------------------------
User avatar
LittleArsonist
Personal Assistant
 
Posts: 931
Joined: Wed Jan 14, 2004

Postby heppolo » Tue Mar 27, 2018 1:58 pm

02 00 01 Snow Patrol • Don't Give In
[2]

High debut, I guess you like it a lot.
Quite different, but it is interesting.
Waffles are checked cookies
User avatar
heppolo
Legend
 
Posts: 22124
Joined: Sun May 17, 2009
Location: interchangeable

Postby LittleArsonist » Sat Mar 31, 2018 4:09 pm

TW LW WI
artist
track title
[chartrun]
----------------------------------------------------------------------------------------------------------------------------------
50:иgѕ (13/52) - week ending April 1
----------------------------------------------------------------------------------------------------------------------------------

----------------------------------------------------------------------------------------------------------------------------------
Image
01 01 06 Imagine DragonsNext To Me
[20-3-2-1-1-1]
----------------------------------------------------------------------------------------------------------------------------------
Image
02 02 02 Snow PatrolDon't Give In
[2-2]
----------------------------------------------------------------------------------------------------------------------------------
Image
03 04 13 Kendrick Lamar & SZAAll The Stars
[48-37-34-16-9-4-3-2-1-1-2-4-3]
----------------------------------------------------------------------------------------------------------------------------------
Image
04 05 08 The Weeknd & Kendrick LamarPray For Me
[50-43-38-22-11-8-5-4]
----------------------------------------------------------------------------------------------------------------------------------
Image
05 17 04 James BayPink Lemonade
[34-27-17-5]
----------------------------------------------------------------------------------------------------------------------------------
Image
06 03 03 Ed SheeranSupermarket Flowers
[4-3-6]
----------------------------------------------------------------------------------------------------------------------------------
Image
07 08 09 P!nkWild Hearts Can't Be Broken
[2-1-1-3-4-4-5-8-7]
----------------------------------------------------------------------------------------------------------------------------------
Image
08 07 05 Sarah BlaskoA Shot
[13-6-6-7-8]
----------------------------------------------------------------------------------------------------------------------------------
Image
09 11 07 Kendrick LamarLOVE. (Featuring Zacari)
[50-40-21-13-11-11-9]
----------------------------------------------------------------------------------------------------------------------------------
Image
10 10 05 Sarah BlaskoNever Let Me Go
[19-16-13-10-10]
----------------------------------------------------------------------------------------------------------------------------------
Image
11 15 03 Dua LipaIDGAF
[20-15-11]
----------------------------------------------------------------------------------------------------------------------------------
Image
12 06 10 Lady GagaJoanne (Where Do You Think You're Goin'?) (Piano Version)
[15-6-3-2-1-2-3-3-6-12]
----------------------------------------------------------------------------------------------------------------------------------
Image
13 12 08 Paloma FaithTil I'm Done
[43-24-8-6-7-9-12-13]
----------------------------------------------------------------------------------------------------------------------------------
Image
14 16 07 U2Get Out Of Your Own Way
[42-34-29-20-16-16-14]
----------------------------------------------------------------------------------------------------------------------------------
Image
15 09 12 Vance JoyWe're Going Home
[28-16-13-13-11-11-10-5-5-7-9-15]
----------------------------------------------------------------------------------------------------------------------------------
Image
16 14 11 G-Eazy & HalseyHim & I
[18-2-1-2-5-4-8-9-12-14-16]
----------------------------------------------------------------------------------------------------------------------------------
Image
17 26 03 HalseyAlone
[32-26-17]
----------------------------------------------------------------------------------------------------------------------------------
Image
18 20 08 James BayWild Love
[24-16-15-11-15-18-20-18]
----------------------------------------------------------------------------------------------------------------------------------
Image
19 13 10 Julia MichaelsHeaven
[48-44-34-21-17-12-8-10-13-19]
----------------------------------------------------------------------------------------------------------------------------------
Image
20 19 15 Jennifer HudsonBurden Down
[48-31-27-18-12-9-4-5-4-7-10-12-15-19-20]
----------------------------------------------------------------------------------------------------------------------------------
Image
21 21 05 Janelle MonáeMake Me Feel
[44-30-22-21-21]
----------------------------------------------------------------------------------------------------------------------------------
Image
22 23 04 Lisa StansfieldBillionaire
[37-25-23-22]
----------------------------------------------------------------------------------------------------------------------------------
Image
23 18 10 Bruno Mars & Cardi BFinesse (Remix)
[37-17-7-8-6-9-14-14-18-23]
----------------------------------------------------------------------------------------------------------------------------------
Image
24 27 15 SZA x Calvin HarrisThe Weekend (Funk Wav Remix)
[50-42-36-32-27-24-21-19-14-14-18-19-21-27-24]
----------------------------------------------------------------------------------------------------------------------------------
Image
25 22 10 Justin TimberlakeSay Something (Featuring Chris Stapleton)
[47-45-23-7-5-7-10-17-22-25]
----------------------------------------------------------------------------------------------------------------------------------
Image
26 28 15 KhalidSaved
[49-38-30-7-4-3-5-9-9-13-16-18-24-28-26]
----------------------------------------------------------------------------------------------------------------------------------
Image
27 24 16 BastilleWorld Gone Mad
[45-40-36-26-24-21-18-18-15-13-12-14-17-19-24-27]
----------------------------------------------------------------------------------------------------------------------------------
Image
28 33 06 EditorsHallelujah (So Low)
[45-43-39-40-33-28]
----------------------------------------------------------------------------------------------------------------------------------
Image
29 45 02 Shawn MendesIn My Blood
[45-29]
----------------------------------------------------------------------------------------------------------------------------------
Image
30 25 06 Tom WalkerLeave A Light On
[48-39-24-23-25-30]
----------------------------------------------------------------------------------------------------------------------------------
Image
31 29 03 Vance JoyCall If You Need Me
[37-29-31]
----------------------------------------------------------------------------------------------------------------------------------
Image
32 35 03 Arcade FirePut Your Money On Me
[41-35-32]
----------------------------------------------------------------------------------------------------------------------------------
Image
33 36 16 HAIMWalking Away
[40-30-18-10-6-6-7-12-18-22-26-31-33-39-36-33]
----------------------------------------------------------------------------------------------------------------------------------
Image
34 31 10 MigosStir Fry
[44-41-38-34-31-26-27-33-31-34]
----------------------------------------------------------------------------------------------------------------------------------
Image
35 34 19 HalseyBad At Love
[50-46-41-34-28-20-18-13-9-8-11-14-15-18-24-26-30-34-35]
----------------------------------------------------------------------------------------------------------------------------------
Image
36 41 03 MuseThought Contagion
[47-41-36]
----------------------------------------------------------------------------------------------------------------------------------
Image
37 50 02 George EzraParadise
[50-37]
----------------------------------------------------------------------------------------------------------------------------------
Image
38 40 02 Kelly ClarksonI Don't Think About You
[40-38]
----------------------------------------------------------------------------------------------------------------------------------
Image
39 30 15 Portugal. The ManLive In The Moment
[41-40-37-30-29-30-32-28-26-21-23-25-28-30-39]
----------------------------------------------------------------------------------------------------------------------------------
Image
40 38 07 Maroon 5Wait
[39-37-34-31-34-38-40]
----------------------------------------------------------------------------------------------------------------------------------
Image
41 32 20 Nothing But ThievesParticles
[33-39-37-33-28-21-14-4-2-2-4-7-8-6-9-15-21-26-32-41]
----------------------------------------------------------------------------------------------------------------------------------
Image
42 42 16 James ArthurNaked
[35-23-23-20-15-10-10-14-17-20-23-25-29-38-42-42]
----------------------------------------------------------------------------------------------------------------------------------
Image
43 37 12 Troye SivanMy My My!
[49-39-32-26-12-10-16-20-23-29-37-43]
----------------------------------------------------------------------------------------------------------------------------------
Image
44 39 20 Calum ScottYou Are The Reason
[3-1-2-3-6-6-5-11-14-19-27-35-45-48-47-45-35-31-39-44]
----------------------------------------------------------------------------------------------------------------------------------
Image
45 43 04 SadeFlower Of The Universe
[42-44-43-45]
----------------------------------------------------------------------------------------------------------------------------------
Image
46 00 01 KodalineFollow Your Fire
[46]
----------------------------------------------------------------------------------------------------------------------------------
Image
47 00 01 Capital CitiesMy Name Is Mars
[47]
----------------------------------------------------------------------------------------------------------------------------------
Image
48 47 19 P!nkBeautiful Trauma
[15-4-1-1-2-2-1-1-3-6-10-16-19-25-32-38-43-47-48]
----------------------------------------------------------------------------------------------------------------------------------
Image
49 44 13 Justin TimberlakeFilthy
[39-35-28-21-15-13-12-11-17-22-35-44-49]
----------------------------------------------------------------------------------------------------------------------------------
Image
50 00 01 MigosWalk It Talk It (Featuring Drake)
[50]
----------------------------------------------------------------------------------------------------------------------------------
OUT
----------------------------------------------------------------------------------------------------------------------------------
46 10 Rita OraAnywhere
[46-38-33-21-25-22-28-28-36-46]
----------------------------------------------------------------------------------------------------------------------------------
48 14 The KillersRut
[39-34-33-26-24-25-24-29-32-32-38-40-45-48]
----------------------------------------------------------------------------------------------------------------------------------
49 11 Hailee Steinfeld & BloodPop®Capital Letters
[33-31-26-23-20-23-24-27-32-42-49]
----------------------------------------------------------------------------------------------------------------------------------
User avatar
LittleArsonist
Personal Assistant
 
Posts: 931
Joined: Wed Jan 14, 2004

Postby LittleArsonist » Sat Mar 31, 2018 4:09 pm

heppolo wrote:02 00 01 Snow Patrol • Don't Give In
[2]

High debut, I guess you like it a lot.
Quite different, but it is interesting.
yup and really like the lyrics and the message
User avatar
LittleArsonist
Personal Assistant
 
Posts: 931
Joined: Wed Jan 14, 2004

Postby LittleArsonist » Sat Apr 07, 2018 6:16 pm

TW LW WI
artist
track title
[chartrun]
----------------------------------------------------------------------------------------------------------------------------------
50:иgѕ (14/52) - week ending April 8
----------------------------------------------------------------------------------------------------------------------------------

----------------------------------------------------------------------------------------------------------------------------------
Image
01 01 07 Imagine DragonsNext To Me
[20-3-2-1-1-1-1]
----------------------------------------------------------------------------------------------------------------------------------
Image
02 02 03 Snow PatrolDon't Give In
[2-2-2]
----------------------------------------------------------------------------------------------------------------------------------
Image
03 05 05 James BayPink Lemonade
[34-27-17-5-3]
----------------------------------------------------------------------------------------------------------------------------------
Image
04 07 10 P!nkWild Hearts Can't Be Broken
[2-1-1-3-4-4-5-8-7-4]
----------------------------------------------------------------------------------------------------------------------------------
Image
05 04 09 The Weeknd & Kendrick LamarPray For Me
[50-43-38-22-11-8-5-4-5]
----------------------------------------------------------------------------------------------------------------------------------
Image
06 09 08 Kendrick LamarLOVE. (Featuring Zacari)
[50-40-21-13-11-11-9-6]
----------------------------------------------------------------------------------------------------------------------------------
Image
07 06 04 Ed SheeranSupermarket Flowers
[4-3-6-7]
----------------------------------------------------------------------------------------------------------------------------------
Image
08 17 04 HalseyAlone
[32-26-17-8]
----------------------------------------------------------------------------------------------------------------------------------
Image
09 03 14 Kendrick Lamar & SZAAll The Stars
[48-37-34-16-9-4-3-2-1-1-2-4-3-9]
----------------------------------------------------------------------------------------------------------------------------------
Image
10 08 06 Sarah BlaskoA Shot
[13-6-6-7-8-10]
----------------------------------------------------------------------------------------------------------------------------------
Image
11 12 11 Lady GagaJoanne (Where Do You Think You're Goin'?) (Piano Version)
[15-6-3-2-1-2-3-3-6-12-11]
----------------------------------------------------------------------------------------------------------------------------------
Image
12 14 08 U2Get Out Of Your Own Way
[42-34-29-20-16-16-14-12]
----------------------------------------------------------------------------------------------------------------------------------
Image
13 10 06 Sarah BlaskoNever Let Me Go
[19-16-13-10-10-13]
----------------------------------------------------------------------------------------------------------------------------------
Image
14 11 04 Dua LipaIDGAF
[20-15-11-14]
----------------------------------------------------------------------------------------------------------------------------------
Image
15 18 09 James BayWild Love
[24-16-15-11-15-18-20-18-15]
----------------------------------------------------------------------------------------------------------------------------------
Image
16 13 09 Paloma FaithTil I'm Done
[43-24-8-6-7-9-12-13-16]
----------------------------------------------------------------------------------------------------------------------------------
Image
17 29 03 Shawn MendesIn My Blood
[45-29-17]
----------------------------------------------------------------------------------------------------------------------------------
Image
18 16 12 G-Eazy & HalseyHim & I
[18-2-1-2-5-4-8-9-12-14-16-18]
----------------------------------------------------------------------------------------------------------------------------------
Image
19 15 13 Vance JoyWe're Going Home
[28-16-13-13-11-11-10-5-5-7-9-15-19]
----------------------------------------------------------------------------------------------------------------------------------
Image
20 22 05 Lisa StansfieldBillionaire
[37-25-23-22-20]
----------------------------------------------------------------------------------------------------------------------------------
Image
21 19 11 Julia MichaelsHeaven
[48-44-34-21-17-12-8-10-13-19-21]
----------------------------------------------------------------------------------------------------------------------------------
Image
22 28 07 EditorsHallelujah (So Low)
[45-43-39-40-33-28-22]
----------------------------------------------------------------------------------------------------------------------------------
Image
23 20 16 Jennifer HudsonBurden Down
[48-31-27-18-12-9-4-5-4-7-10-12-15-19-20-23]
----------------------------------------------------------------------------------------------------------------------------------
Image
24 32 04 Arcade FirePut Your Money On Me
[41-35-32-24]
----------------------------------------------------------------------------------------------------------------------------------
Image
25 25 11 Justin TimberlakeSay Something (Featuring Chris Stapleton)
[47-45-23-7-5-7-10-17-22-25-25]
----------------------------------------------------------------------------------------------------------------------------------
Image
26 00 01 The WeekndCall Out My Name
[26]
----------------------------------------------------------------------------------------------------------------------------------
Image
27 23 11 Bruno Mars & Cardi BFinesse (Remix)
[37-17-7-8-6-9-14-14-18-23-27]
----------------------------------------------------------------------------------------------------------------------------------
Image
28 21 06 Janelle MonáeMake Me Feel
[44-30-22-21-21-28]
----------------------------------------------------------------------------------------------------------------------------------
Image
29 33 17 HAIMWalking Away
[40-30-18-10-6-6-7-12-18-22-26-31-33-39-36-33-29]
----------------------------------------------------------------------------------------------------------------------------------
Image
30 37 03 George EzraParadise
[50-37-30]
----------------------------------------------------------------------------------------------------------------------------------
Image
31 24 16 SZA x Calvin HarrisThe Weekend (Funk Wav Remix)
[50-42-36-32-27-24-21-19-14-14-18-19-21-27-24-31]
----------------------------------------------------------------------------------------------------------------------------------
Image
32 34 11 MigosStir Fry
[44-41-38-34-31-26-27-33-31-34-32]
----------------------------------------------------------------------------------------------------------------------------------
Image
33 26 16 KhalidSaved
[49-38-30-7-4-3-5-9-9-13-16-18-24-28-26-33]
----------------------------------------------------------------------------------------------------------------------------------
Image
34 27 17 BastilleWorld Gone Mad
[45-40-36-26-24-21-18-18-15-13-12-14-17-19-24-27-34]
----------------------------------------------------------------------------------------------------------------------------------
Image
35 30 07 Tom WalkerLeave A Light On
[48-39-24-23-25-30-35]
----------------------------------------------------------------------------------------------------------------------------------
Image
36 00 01 Foster The PeopleSit Next To Me
[36]
----------------------------------------------------------------------------------------------------------------------------------
Image
37 47 02 Capital CitiesMy Name Is Mars
[47-37]
----------------------------------------------------------------------------------------------------------------------------------
Image
38 31 04 Vance JoyCall If You Need Me
[37-29-31-38]
----------------------------------------------------------------------------------------------------------------------------------
Image
39 36 04 MuseThought Contagion
[47-41-36-39]
----------------------------------------------------------------------------------------------------------------------------------
Image
40 00 01 Khalid & NormaniLove Lies
[40]
----------------------------------------------------------------------------------------------------------------------------------
Image
41 45 05 SadeFlower Of The Universe
[42-44-43-45-41]
----------------------------------------------------------------------------------------------------------------------------------
Image
42 38 03 Kelly ClarksonI Don't Think About You
[40-38-42]
----------------------------------------------------------------------------------------------------------------------------------
Image
43 46 02 KodalineFollow Your Fire
[46-43]
----------------------------------------------------------------------------------------------------------------------------------
Image
44 35 20 HalseyBad At Love
[50-46-41-34-28-20-18-13-9-8-11-14-15-18-24-26-30-34-35-44]
----------------------------------------------------------------------------------------------------------------------------------
Image
45 50 02 MigosWalk It Talk It (Featuring Drake)
[50-45]
----------------------------------------------------------------------------------------------------------------------------------
Image
46 39 16 Portugal. The ManLive In The Moment
[41-40-37-30-29-30-32-28-26-21-23-25-28-30-39-46]
----------------------------------------------------------------------------------------------------------------------------------
Image
47 40 08 Maroon 5Wait
[39-37-34-31-34-38-40-47]
----------------------------------------------------------------------------------------------------------------------------------
Image
48 43 13 Troye SivanMy My My!
[49-39-32-26-12-10-16-20-23-29-37-43-48]
----------------------------------------------------------------------------------------------------------------------------------
Image
49 00 01 Jhené AikoSativa (Featuring Rae Sremmurd)
[49]
----------------------------------------------------------------------------------------------------------------------------------
Image
50 00 01 Taylor SwiftDelicate
[50]
----------------------------------------------------------------------------------------------------------------------------------
OUT
----------------------------------------------------------------------------------------------------------------------------------
41 20 Nothing But ThievesParticles
[33-39-37-33-28-21-14-4-2-2-4-7-8-6-9-15-21-26-32-41]
----------------------------------------------------------------------------------------------------------------------------------
42 16 James ArthurNaked
[35-23-23-20-15-10-10-14-17-20-23-25-29-38-42-42]
----------------------------------------------------------------------------------------------------------------------------------
44 20 Calum ScottYou Are The Reason
[3-1-2-3-6-6-5-11-14-19-27-35-45-48-47-45-35-31-39-44]
----------------------------------------------------------------------------------------------------------------------------------
48 19 P!nkBeautiful Trauma
[15-4-1-1-2-2-1-1-3-6-10-16-19-25-32-38-43-47-48]
----------------------------------------------------------------------------------------------------------------------------------
49 13 Justin TimberlakeFilthy
[39-35-28-21-15-13-12-11-17-22-35-44-49]
----------------------------------------------------------------------------------------------------------------------------------
User avatar
LittleArsonist
Personal Assistant
 
Posts: 931
Joined: Wed Jan 14, 2004

Postby heppolo » Sat Apr 07, 2018 9:58 pm

03 05 05 James Bay • Pink Lemonade

Could be a worthy contender for the next week's #1
Waffles are checked cookies
User avatar
heppolo
Legend
 
Posts: 22124
Joined: Sun May 17, 2009
Location: interchangeable

Postby LittleArsonist » Fri Apr 13, 2018 4:37 pm

TW LW WI
artist
track title
[chartrun]
----------------------------------------------------------------------------------------------------------------------------------
50:иgѕ (15/52) - week ending April 15
----------------------------------------------------------------------------------------------------------------------------------

----------------------------------------------------------------------------------------------------------------------------------
Image
01 00 01 Snow PatrolLife On Earth
[1]
----------------------------------------------------------------------------------------------------------------------------------
Image
02 01 08 Imagine DragonsNext To Me
[20-3-2-1-1-1-1-2]
----------------------------------------------------------------------------------------------------------------------------------
Image
03 02 04 Snow PatrolDon't Give In
[2-2-2-3]
----------------------------------------------------------------------------------------------------------------------------------
Image
04 03 06 James BayPink Lemonade
[34-27-17-5-3-4]
----------------------------------------------------------------------------------------------------------------------------------
Image
05 00 01 Florence + The MachineSky Full Of Song
[5]
----------------------------------------------------------------------------------------------------------------------------------
Image
06 05 10 The Weeknd & Kendrick LamarPray For Me
[50-43-38-22-11-8-5-4-5-6]
----------------------------------------------------------------------------------------------------------------------------------
Image
07 07 05 Ed SheeranSupermarket Flowers
[4-3-6-7-7]
----------------------------------------------------------------------------------------------------------------------------------
Image
08 04 11 P!nkWild Hearts Can't Be Broken
[2-1-1-3-4-4-5-8-7-4-8]
----------------------------------------------------------------------------------------------------------------------------------
Image
09 06 09 Kendrick LamarLOVE. (Featuring Zacari)
[50-40-21-13-11-11-9-6-9]
----------------------------------------------------------------------------------------------------------------------------------
Image
10 10 07 Sarah BlaskoA Shot
[13-6-6-7-8-10-10]
----------------------------------------------------------------------------------------------------------------------------------
Image
11 08 05 HalseyAlone
[32-26-17-8-11]
----------------------------------------------------------------------------------------------------------------------------------
Image
12 17 04 Shawn MendesIn My Blood
[45-29-17-12]
----------------------------------------------------------------------------------------------------------------------------------
Image
13 16 10 Paloma FaithTil I'm Done
[43-24-8-6-7-9-12-13-16-13]
----------------------------------------------------------------------------------------------------------------------------------
Image
14 11 12 Lady GagaJoanne (Where Do You Think You're Goin'?) (Piano Version)
[15-6-3-2-1-2-3-3-6-12-11-14]
----------------------------------------------------------------------------------------------------------------------------------
Image
15 09 15 Kendrick Lamar & SZAAll The Stars
[48-37-34-16-9-4-3-2-1-1-2-4-3-9-15]
----------------------------------------------------------------------------------------------------------------------------------
Image
16 15 10 James BayWild Love
[24-16-15-11-15-18-20-18-15-16]
----------------------------------------------------------------------------------------------------------------------------------
Image
17 13 07 Sarah BlaskoNever Let Me Go
[19-16-13-10-10-13-17]
----------------------------------------------------------------------------------------------------------------------------------
Image
18 14 05 Dua LipaIDGAF
[20-15-11-14-18]
----------------------------------------------------------------------------------------------------------------------------------
Image
19 26 02 The WeekndCall Out My Name
[26-19]
----------------------------------------------------------------------------------------------------------------------------------
Image
20 12 09 U2Get Out Of Your Own Way
[42-34-29-20-16-16-14-12-20]
----------------------------------------------------------------------------------------------------------------------------------
Image
21 18 13 G-Eazy & HalseyHim & I
[18-2-1-2-5-4-8-9-12-14-16-18-21]
----------------------------------------------------------------------------------------------------------------------------------
Image
22 21 12 Julia MichaelsHeaven
[48-44-34-21-17-12-8-10-13-19-21-22]
----------------------------------------------------------------------------------------------------------------------------------
Image
23 20 06 Lisa StansfieldBillionaire
[37-25-23-22-20-23]
----------------------------------------------------------------------------------------------------------------------------------
Image
24 19 14 Vance JoyWe're Going Home
[28-16-13-13-11-11-10-5-5-7-9-15-19-24]
----------------------------------------------------------------------------------------------------------------------------------
Image
25 30 04 George EzraParadise
[50-37-30-25]
----------------------------------------------------------------------------------------------------------------------------------
Image
26 22 08 EditorsHallelujah (So Low)
[45-43-39-40-33-28-22-26]
----------------------------------------------------------------------------------------------------------------------------------
Image
27 23 17 Jennifer HudsonBurden Down
[48-31-27-18-12-9-4-5-4-7-10-12-15-19-20-23-27]
----------------------------------------------------------------------------------------------------------------------------------
Image
28 36 02 Foster The PeopleSit Next To Me
[36-28]
----------------------------------------------------------------------------------------------------------------------------------
Image
29 24 05 Arcade FirePut Your Money On Me
[41-35-32-24-29]
----------------------------------------------------------------------------------------------------------------------------------
Image
30 38 05 Vance JoyCall If You Need Me
[37-29-31-38-30]
----------------------------------------------------------------------------------------------------------------------------------
Image
31 25 12 Justin TimberlakeSay Something (Featuring Chris Stapleton)
[47-45-23-7-5-7-10-17-22-25-25-31]
----------------------------------------------------------------------------------------------------------------------------------
Image
32 40 02 Khalid & NormaniLove Lies
[40-32]
----------------------------------------------------------------------------------------------------------------------------------
Image
33 28 07 Janelle MonáeMake Me Feel
[44-30-22-21-21-28-33]
----------------------------------------------------------------------------------------------------------------------------------
Image
34 37 03 Capital CitiesMy Name Is Mars
[47-37-34]
----------------------------------------------------------------------------------------------------------------------------------
Image
35 27 12 Bruno Mars & Cardi BFinesse (Remix)
[37-17-7-8-6-9-14-14-18-23-27-35]
----------------------------------------------------------------------------------------------------------------------------------
Image
36 00 01 Alice MertonNo Roots
[36]
----------------------------------------------------------------------------------------------------------------------------------
Image
37 29 18 HAIMWalking Away
[40-30-18-10-6-6-7-12-18-22-26-31-33-39-36-33-29-37]
----------------------------------------------------------------------------------------------------------------------------------
Image
38 31 17 SZA x Calvin HarrisThe Weekend (Funk Wav Remix)
[50-42-36-32-27-24-21-19-14-14-18-19-21-27-24-31-38]
----------------------------------------------------------------------------------------------------------------------------------
Image
39 32 12 MigosStir Fry
[44-41-38-34-31-26-27-33-31-34-32-39]
----------------------------------------------------------------------------------------------------------------------------------
Image
40 43 03 KodalineFollow Your Fire
[46-43-40]
----------------------------------------------------------------------------------------------------------------------------------
Image
41 34 18 BastilleWorld Gone Mad
[45-40-36-26-24-21-18-18-15-13-12-14-17-19-24-27-34-41]
----------------------------------------------------------------------------------------------------------------------------------
Image
42 35 08 Tom WalkerLeave A Light On
[48-39-24-23-25-30-35-42]
----------------------------------------------------------------------------------------------------------------------------------
Image
43 33 17 KhalidSaved
[49-38-30-7-4-3-5-9-9-13-16-18-24-28-26-33-43]
----------------------------------------------------------------------------------------------------------------------------------
Image
44 41 06 SadeFlower Of The Universe
[42-44-43-45-41-44]
----------------------------------------------------------------------------------------------------------------------------------
Image
45 39 05 MuseThought Contagion
[47-41-36-39-45]
----------------------------------------------------------------------------------------------------------------------------------
Image
46 49 02 Jhené AikoSativa (Featuring Rae Sremmurd)
[49-46]
----------------------------------------------------------------------------------------------------------------------------------
Image
47 00 01 Janelle MonáePynk (Featuring Grimes)
[47]
----------------------------------------------------------------------------------------------------------------------------------
Image
48 45 03 MigosWalk It Talk It (Featuring Drake)
[50-45-48]
----------------------------------------------------------------------------------------------------------------------------------
Image
49 50 02 Taylor SwiftDelicate
[50-49]
----------------------------------------------------------------------------------------------------------------------------------
Image
50 42 04 Kelly ClarksonI Don't Think About You
[40-38-42-50]
----------------------------------------------------------------------------------------------------------------------------------
OUT
----------------------------------------------------------------------------------------------------------------------------------
44 20 HalseyBad At Love
[50-46-41-34-28-20-18-13-9-8-11-14-15-18-24-26-30-34-35-44]
----------------------------------------------------------------------------------------------------------------------------------
46 16 Portugal. The ManLive In The Moment
[41-40-37-30-29-30-32-28-26-21-23-25-28-30-39-46]
----------------------------------------------------------------------------------------------------------------------------------
47 08 Maroon 5Wait
[39-37-34-31-34-38-40-47]
----------------------------------------------------------------------------------------------------------------------------------
48 13 Troye SivanMy My My!
[49-39-32-26-12-10-16-20-23-29-37-43-48]
----------------------------------------------------------------------------------------------------------------------------------
User avatar
LittleArsonist
Personal Assistant
 
Posts: 931
Joined: Wed Jan 14, 2004

Postby heppolo » Fri Apr 13, 2018 7:04 pm

01 00 01 Snow Patrol • Life On Earth
[1]

Nice song, I like it more than ''Don't Give In''
Waffles are checked cookies
User avatar
heppolo
Legend
 
Posts: 22124
Joined: Sun May 17, 2009
Location: interchangeable

Postby LittleArsonist » Fri Apr 20, 2018 2:03 pm

heppolo wrote:01 00 01 Snow Patrol • Life On Earth
[1]

Nice song, I like it more than ''Don't Give In''
they are both great tracks lyrically... but this one is definitely the best one :D
User avatar
LittleArsonist
Personal Assistant
 
Posts: 931
Joined: Wed Jan 14, 2004

Postby LittleArsonist » Fri Apr 20, 2018 2:57 pm

TW LW WI
artist
track title
[chartrun]
----------------------------------------------------------------------------------------------------------------------------------
50:иgѕ (16/52) - week ending April 22
----------------------------------------------------------------------------------------------------------------------------------

----------------------------------------------------------------------------------------------------------------------------------
Image
01 01 02 Snow PatrolLife On Earth
[1-1]
----------------------------------------------------------------------------------------------------------------------------------
Image
02 02 09 Imagine DragonsNext To Me
[20-3-2-1-1-1-1-2-2]
----------------------------------------------------------------------------------------------------------------------------------
Image
03 05 02 Florence + The MachineSky Full Of Song
[5-3]
----------------------------------------------------------------------------------------------------------------------------------
Image
04 04 07 James BayPink Lemonade
[34-27-17-5-3-4-4]
----------------------------------------------------------------------------------------------------------------------------------
Image
05 03 05 Snow PatrolDon't Give In
[2-2-2-3-5]
----------------------------------------------------------------------------------------------------------------------------------
Image
06 12 05 Shawn MendesIn My Blood
[45-29-17-12-6]
----------------------------------------------------------------------------------------------------------------------------------
Image
07 11 06 HalseyAlone
[32-26-17-8-11-7]
----------------------------------------------------------------------------------------------------------------------------------
Image
08 06 11 The Weeknd & Kendrick LamarPray For Me
[50-43-38-22-11-8-5-4-5-6-8]
----------------------------------------------------------------------------------------------------------------------------------
Image
09 07 06 Ed SheeranSupermarket Flowers
[4-3-6-7-7-9]
----------------------------------------------------------------------------------------------------------------------------------
Image
10 19 03 The WeekndCall Out My Name
[26-19-10]
----------------------------------------------------------------------------------------------------------------------------------
Image
11 09 10 Kendrick LamarLOVE. (Featuring Zacari)
[50-40-21-13-11-11-9-6-9-11]
----------------------------------------------------------------------------------------------------------------------------------
Image
12 10 08 Sarah BlaskoA Shot
[13-6-6-7-8-10-10-12]
----------------------------------------------------------------------------------------------------------------------------------
Image
13 08 12 P!nkWild Hearts Can't Be Broken
[2-1-1-3-4-4-5-8-7-4-8-13]
----------------------------------------------------------------------------------------------------------------------------------
Image
14 32 03 Khalid & NormaniLove Lies
[40-32-14]
----------------------------------------------------------------------------------------------------------------------------------
Image
15 13 11 Paloma FaithTil I'm Done
[43-24-8-6-7-9-12-13-16-13-15]
----------------------------------------------------------------------------------------------------------------------------------
Image
16 16 11 James BayWild Love
[24-16-15-11-15-18-20-18-15-16-16]
----------------------------------------------------------------------------------------------------------------------------------
Image
17 25 05 George EzraParadise
[50-37-30-25-17]
----------------------------------------------------------------------------------------------------------------------------------
Image
18 14 13 Lady GagaJoanne (Where Do You Think You're Goin'?) (Piano Version)
[15-6-3-2-1-2-3-3-6-12-11-14-18]
----------------------------------------------------------------------------------------------------------------------------------
Image
19 17 08 Sarah BlaskoNever Let Me Go
[19-16-13-10-10-13-17-19]
----------------------------------------------------------------------------------------------------------------------------------
Image
20 15 16 Kendrick Lamar & SZAAll The Stars
[48-37-34-16-9-4-3-2-1-1-2-4-3-9-15-20]
----------------------------------------------------------------------------------------------------------------------------------
Image
21 18 06 Dua LipaIDGAF
[20-15-11-14-18-21]
----------------------------------------------------------------------------------------------------------------------------------
Image
22 20 10 U2Get Out Of Your Own Way
[42-34-29-20-16-16-14-12-20-22]
----------------------------------------------------------------------------------------------------------------------------------
Image
23 23 07 Lisa StansfieldBillionaire
[37-25-23-22-20-23-23]
----------------------------------------------------------------------------------------------------------------------------------
Image
24 28 03 Foster The PeopleSit Next To Me
[36-28-24]
----------------------------------------------------------------------------------------------------------------------------------
Image
25 21 14 G-Eazy & HalseyHim & I
[18-2-1-2-5-4-8-9-12-14-16-18-21-25]
----------------------------------------------------------------------------------------------------------------------------------
Image
26 34 04 Capital CitiesMy Name Is Mars
[47-37-34-26]
----------------------------------------------------------------------------------------------------------------------------------
Image
27 22 13 Julia MichaelsHeaven
[48-44-34-21-17-12-8-10-13-19-21-22-27]
----------------------------------------------------------------------------------------------------------------------------------
Image
28 24 15 Vance JoyWe're Going Home
[28-16-13-13-11-11-10-5-5-7-9-15-19-24-28]
----------------------------------------------------------------------------------------------------------------------------------
Image
29 29 06 Arcade FirePut Your Money On Me
[41-35-32-24-29-29]
----------------------------------------------------------------------------------------------------------------------------------
Image
30 30 06 Vance JoyCall If You Need Me
[37-29-31-38-30-30]
----------------------------------------------------------------------------------------------------------------------------------
Image
31 36 02 Alice MertonNo Roots
[36-31]
----------------------------------------------------------------------------------------------------------------------------------
Image
32 31 13 Justin TimberlakeSay Something (Featuring Chris Stapleton)
[47-45-23-7-5-7-10-17-22-25-25-31-32]
----------------------------------------------------------------------------------------------------------------------------------
Image
33 26 09 EditorsHallelujah (So Low)
[45-43-39-40-33-28-22-26-33]
----------------------------------------------------------------------------------------------------------------------------------
Image
34 40 04 KodalineFollow Your Fire
[46-43-40-34]
----------------------------------------------------------------------------------------------------------------------------------
Image
35 27 18 Jennifer HudsonBurden Down
[48-31-27-18-12-9-4-5-4-7-10-12-15-19-20-23-27-35]
----------------------------------------------------------------------------------------------------------------------------------
Image
36 39 13 MigosStir Fry
[44-41-38-34-31-26-27-33-31-34-32-39-36]
----------------------------------------------------------------------------------------------------------------------------------
Image
37 47 02 Janelle MonáePynk (Featuring Grimes)
[47-37]
----------------------------------------------------------------------------------------------------------------------------------
Image
38 33 08 Janelle MonáeMake Me Feel
[44-30-22-21-21-28-33-38]
----------------------------------------------------------------------------------------------------------------------------------
Image
39 48 04 MigosWalk It Talk It (Featuring Drake)
[50-45-48-39]
----------------------------------------------------------------------------------------------------------------------------------
Image
40 46 03 Jhené AikoSativa (Featuring Rae Sremmurd)
[49-46-40]
----------------------------------------------------------------------------------------------------------------------------------
Image
41 37 19 HAIMWalking Away
[40-30-18-10-6-6-7-12-18-22-26-31-33-39-36-33-29-37-41]
----------------------------------------------------------------------------------------------------------------------------------
Image
42 35 13 Bruno Mars & Cardi BFinesse (Remix)
[37-17-7-8-6-9-14-14-18-23-27-35-42]
----------------------------------------------------------------------------------------------------------------------------------
Image
43 42 09 Tom WalkerLeave A Light On
[48-39-24-23-25-30-35-42-43]
----------------------------------------------------------------------------------------------------------------------------------
Image
44 44 07 SadeFlower Of The Universe
[42-44-43-45-41-44-44]
----------------------------------------------------------------------------------------------------------------------------------
Image
45 38 18 SZA x Calvin HarrisThe Weekend (Funk Wav Remix)
[50-42-36-32-27-24-21-19-14-14-18-19-21-27-24-31-38-45]
----------------------------------------------------------------------------------------------------------------------------------
Image
46 45 06 MuseThought Contagion
[47-41-36-39-45-46]
----------------------------------------------------------------------------------------------------------------------------------
Image
47 50 05 Kelly ClarksonI Don't Think About You
[40-38-42-50-47]
----------------------------------------------------------------------------------------------------------------------------------
Image
48 43 18 KhalidSaved
[49-38-30-7-4-3-5-9-9-13-16-18-24-28-26-33-43-48]
----------------------------------------------------------------------------------------------------------------------------------
Image
49 41 19 BastilleWorld Gone Mad
[45-40-36-26-24-21-18-18-15-13-12-14-17-19-24-27-34-41-49]
----------------------------------------------------------------------------------------------------------------------------------
Image
50 00 01 DrakeNice For What
[50]
----------------------------------------------------------------------------------------------------------------------------------
OUT
----------------------------------------------------------------------------------------------------------------------------------
49 02 Taylor SwiftDelicate
[50-49]
----------------------------------------------------------------------------------------------------------------------------------
User avatar
LittleArsonist
Personal Assistant
 
Posts: 931
Joined: Wed Jan 14, 2004

Postby RalphyS » Sat Apr 21, 2018 2:22 pm

I like 'Life on earth' more than 'Don't give in'!
User avatar
RalphyS
Manager
 
Posts: 1079
Joined: Tue Apr 13, 2010
Location: Limburg, The Netherlands

Postby LittleArsonist » Sat Apr 28, 2018 9:41 am

RalphyS wrote:I like 'Life on earth' more than 'Don't give in'!
glad they are back... can't wait for the whole album
User avatar
LittleArsonist
Personal Assistant
 
Posts: 931
Joined: Wed Jan 14, 2004

Postby LittleArsonist » Sat Apr 28, 2018 10:16 am

TW LW WI
artist
track title
[chartrun]
----------------------------------------------------------------------------------------------------------------------------------
50:иgѕ (17/52) - week ending April 29
----------------------------------------------------------------------------------------------------------------------------------

----------------------------------------------------------------------------------------------------------------------------------
Image
01 01 03 Snow PatrolLife On Earth
[1-1-1]
----------------------------------------------------------------------------------------------------------------------------------
Image
02 06 06 Shawn MendesIn My Blood
[45-29-17-12-6-2]
----------------------------------------------------------------------------------------------------------------------------------
Image
03 02 10 Imagine DragonsNext To Me
[20-3-2-1-1-1-1-2-2-3]
----------------------------------------------------------------------------------------------------------------------------------
Image
04 03 03 Florence + The MachineSky Full Of Song
[5-3-4]
----------------------------------------------------------------------------------------------------------------------------------
Image
05 10 04 The WeekndCall Out My Name
[26-19-10-5]
----------------------------------------------------------------------------------------------------------------------------------
Image
06 14 04 Khalid & NormaniLove Lies
[40-32-14-6]
----------------------------------------------------------------------------------------------------------------------------------
Image
07 07 07 HalseyAlone
[32-26-17-8-11-7-7]
----------------------------------------------------------------------------------------------------------------------------------
Image
08 05 06 Snow PatrolDon't Give In
[2-2-2-3-5-8]
----------------------------------------------------------------------------------------------------------------------------------
Image
09 04 08 James BayPink Lemonade
[34-27-17-5-3-4-4-9]
----------------------------------------------------------------------------------------------------------------------------------
Image
10 08 12 The Weeknd & Kendrick LamarPray For Me
[50-43-38-22-11-8-5-4-5-6-8-10]
----------------------------------------------------------------------------------------------------------------------------------
Image
11 17 06 George EzraParadise
[50-37-30-25-17-11]
----------------------------------------------------------------------------------------------------------------------------------
Image
12 11 11 Kendrick LamarLOVE. (Featuring Zacari)
[50-40-21-13-11-11-9-6-9-11-12]
----------------------------------------------------------------------------------------------------------------------------------
Image
13 13 13 P!nkWild Hearts Can't Be Broken
[2-1-1-3-4-4-5-8-7-4-8-13-13]
----------------------------------------------------------------------------------------------------------------------------------
Image
14 12 09 Sarah BlaskoA Shot
[13-6-6-7-8-10-10-12-14]
----------------------------------------------------------------------------------------------------------------------------------
Image
15 00 01 James BayUs
[15]
----------------------------------------------------------------------------------------------------------------------------------
Image
16 15 12 Paloma FaithTil I'm Done
[43-24-8-6-7-9-12-13-16-13-15-16]
----------------------------------------------------------------------------------------------------------------------------------
Image
17 09 07 Ed SheeranSupermarket Flowers
[4-3-6-7-7-9-17]
----------------------------------------------------------------------------------------------------------------------------------
Image
18 21 07 Dua LipaIDGAF
[20-15-11-14-18-21-18]
----------------------------------------------------------------------------------------------------------------------------------
Image
19 18 14 Lady GagaJoanne (Where Do You Think You're Goin'?) (Piano Version)
[15-6-3-2-1-2-3-3-6-12-11-14-18-19]
----------------------------------------------------------------------------------------------------------------------------------
Image
20 24 04 Foster The PeopleSit Next To Me
[36-28-24-20]
----------------------------------------------------------------------------------------------------------------------------------
Image
21 16 12 James BayWild Love
[24-16-15-11-15-18-20-18-15-16-16-21]
----------------------------------------------------------------------------------------------------------------------------------
Image
22 19 09 Sarah BlaskoNever Let Me Go
[19-16-13-10-10-13-17-19-22]
----------------------------------------------------------------------------------------------------------------------------------
Image
23 26 05 Capital CitiesMy Name Is Mars
[47-37-34-26-23]
----------------------------------------------------------------------------------------------------------------------------------
Image
24 30 07 Vance JoyCall If You Need Me
[37-29-31-38-30-30-24]
----------------------------------------------------------------------------------------------------------------------------------
Image
25 34 05 KodalineFollow Your Fire
[46-43-40-34-25]
----------------------------------------------------------------------------------------------------------------------------------
Image
26 20 17 Kendrick Lamar & SZAAll The Stars
[48-37-34-16-9-4-3-2-1-1-2-4-3-9-15-20-26]
----------------------------------------------------------------------------------------------------------------------------------
Image
27 37 03 Janelle MonáePynk (Featuring Grimes)
[47-37-27]
----------------------------------------------------------------------------------------------------------------------------------
Image
28 22 11 U2Get Out Of Your Own Way
[42-34-29-20-16-16-14-12-20-22-28]
----------------------------------------------------------------------------------------------------------------------------------
Image
29 31 03 Alice MertonNo Roots
[36-31-29]
----------------------------------------------------------------------------------------------------------------------------------
Image
30 25 15 G-Eazy & HalseyHim & I
[18-2-1-2-5-4-8-9-12-14-16-18-21-25-30]
----------------------------------------------------------------------------------------------------------------------------------
Image
31 23 08 Lisa StansfieldBillionaire
[37-25-23-22-20-23-23-31]
----------------------------------------------------------------------------------------------------------------------------------
Image
32 27 14 Julia MichaelsHeaven
[48-44-34-21-17-12-8-10-13-19-21-22-27-32]
----------------------------------------------------------------------------------------------------------------------------------
Image
33 39 05 MigosWalk It Talk It (Featuring Drake)
[50-45-48-39-33]
----------------------------------------------------------------------------------------------------------------------------------
Image
34 29 07 Arcade FirePut Your Money On Me
[41-35-32-24-29-29-34]
----------------------------------------------------------------------------------------------------------------------------------
Image
35 28 16 Vance JoyWe're Going Home
[28-16-13-13-11-11-10-5-5-7-9-15-19-24-28-35]
----------------------------------------------------------------------------------------------------------------------------------
Image
36 32 14 Justin TimberlakeSay Something (Featuring Chris Stapleton)
[47-45-23-7-5-7-10-17-22-25-25-31-32-36]
----------------------------------------------------------------------------------------------------------------------------------
Image
37 35 19 Jennifer HudsonBurden Down
[48-31-27-18-12-9-4-5-4-7-10-12-15-19-20-23-27-35-37]
----------------------------------------------------------------------------------------------------------------------------------
Image
38 00 01 BazziMine
[38]
----------------------------------------------------------------------------------------------------------------------------------
Image
39 00 01 Calvin Harris & Dua LipaOne Kiss
[39]
----------------------------------------------------------------------------------------------------------------------------------
Image
40 40 04 Jhené AikoSativa (Featuring Rae Sremmurd)
[49-46-40-40]
----------------------------------------------------------------------------------------------------------------------------------
Image
41 38 09 Janelle MonáeMake Me Feel
[44-30-22-21-21-28-33-38-41]
----------------------------------------------------------------------------------------------------------------------------------
Image
42 33 10 EditorsHallelujah (So Low)
[45-43-39-40-33-28-22-26-33-42]
----------------------------------------------------------------------------------------------------------------------------------
Image
43 36 14 MigosStir Fry
[44-41-38-34-31-26-27-33-31-34-32-39-36-43]
----------------------------------------------------------------------------------------------------------------------------------
Image
44 45 19 SZA x Calvin HarrisThe Weekend (Funk Wav Remix)
[50-42-36-32-27-24-21-19-14-14-18-19-21-27-24-31-38-45-44]
----------------------------------------------------------------------------------------------------------------------------------
Image
45 41 20 HAIMWalking Away
[40-30-18-10-6-6-7-12-18-22-26-31-33-39-36-33-29-37-41-45]
----------------------------------------------------------------------------------------------------------------------------------
Image
46 42 14 Bruno Mars & Cardi BFinesse (Remix)
[37-17-7-8-6-9-14-14-18-23-27-35-42-46]
----------------------------------------------------------------------------------------------------------------------------------
Image
47 50 02 DrakeNice For What
[50-47]
----------------------------------------------------------------------------------------------------------------------------------
Image
48 44 08 SadeFlower Of The Universe
[42-44-43-45-41-44-44-48]
----------------------------------------------------------------------------------------------------------------------------------
Image
49 43 10 Tom WalkerLeave A Light On
[48-39-24-23-25-30-35-42-43-49]
----------------------------------------------------------------------------------------------------------------------------------
Image
50 00 01 Nothing But ThievesCrazy
[50]
----------------------------------------------------------------------------------------------------------------------------------
OUT
----------------------------------------------------------------------------------------------------------------------------------
46 06 MuseThought Contagion
[47-41-36-39-45-46]
----------------------------------------------------------------------------------------------------------------------------------
47 05 Kelly ClarksonI Don't Think About You
[40-38-42-50-47]
----------------------------------------------------------------------------------------------------------------------------------
48 18 KhalidSaved
[49-38-30-7-4-3-5-9-9-13-16-18-24-28-26-33-43-48]
----------------------------------------------------------------------------------------------------------------------------------
49 19 BastilleWorld Gone Mad
[45-40-36-26-24-21-18-18-15-13-12-14-17-19-24-27-34-41-49]
----------------------------------------------------------------------------------------------------------------------------------
Last edited by LittleArsonist on Sat Apr 28, 2018 10:19 am, edited 1 time in total.
User avatar
LittleArsonist
Personal Assistant
 
Posts: 931
Joined: Wed Jan 14, 2004

Return to Personal Charts