50:иgѕ w/e June 17 - boo'd up high

Moderators: JSparksFan, tdc2000, FreakyFlyBry

 

Postby heppolo » Sat Apr 28, 2018 10:17 am

Finally Bazzi appeared, it's a good song even if it's a little bit too short
Waffles are checked cookies
User avatar
heppolo
Legend
 
Posts: 19907
Joined: Sun May 17, 2009
Location: interchangeable

Postby LittleArsonist » Sat May 05, 2018 9:46 am

heppolo wrote:Finally Bazzi appeared, it's a good song even if it's a little bit too short
ahah took me a while :lol:
User avatar
LittleArsonist
Personal Assistant
 
Posts: 911
Joined: Wed Jan 14, 2004

Postby LittleArsonist » Sat May 05, 2018 10:36 am

TW LW WI
artist
track title
[chartrun]
----------------------------------------------------------------------------------------------------------------------------------
50:иgѕ (18/52) - week ending May 6
----------------------------------------------------------------------------------------------------------------------------------

----------------------------------------------------------------------------------------------------------------------------------
Image
01 00 01 Florence + The MachineHunger
[1]
----------------------------------------------------------------------------------------------------------------------------------
Image
02 00 01 Snow PatrolWhat If This Is All the Love You Ever Get?
[2]
----------------------------------------------------------------------------------------------------------------------------------
Image
03 02 07 Shawn MendesIn My Blood
[45-29-17-12-6-2-3]
----------------------------------------------------------------------------------------------------------------------------------
Image
04 01 04 Snow PatrolLife On Earth
[1-1-1-4]
----------------------------------------------------------------------------------------------------------------------------------
Image
05 05 05 The WeekndCall Out My Name
[26-19-10-5-5]
----------------------------------------------------------------------------------------------------------------------------------
Image
06 03 11 Imagine DragonsNext To Me
[20-3-2-1-1-1-1-2-2-3-6]
----------------------------------------------------------------------------------------------------------------------------------
Image
07 06 05 Khalid & NormaniLove Lies
[40-32-14-6-7]
----------------------------------------------------------------------------------------------------------------------------------
Image
08 07 08 HalseyAlone
[32-26-17-8-11-7-7-8]
----------------------------------------------------------------------------------------------------------------------------------
Image
09 11 07 George EzraParadise
[50-37-30-25-17-11-9]
----------------------------------------------------------------------------------------------------------------------------------
Image
10 04 04 Florence + The MachineSky Full Of Song
[5-3-4-10]
----------------------------------------------------------------------------------------------------------------------------------
Image
11 00 01 Céline DionAshes
[11]
----------------------------------------------------------------------------------------------------------------------------------
Image
12 08 07 Snow PatrolDon't Give In
[2-2-2-3-5-8-12]
----------------------------------------------------------------------------------------------------------------------------------
Image
13 15 02 James BayUs
[15-13]
----------------------------------------------------------------------------------------------------------------------------------
Image
14 09 09 James BayPink Lemonade
[34-27-17-5-3-4-4-9-14]
----------------------------------------------------------------------------------------------------------------------------------
Image
15 13 14 P!nkWild Hearts Can't Be Broken
[2-1-1-3-4-4-5-8-7-4-8-13-13-15]
----------------------------------------------------------------------------------------------------------------------------------
Image
16 18 08 Dua LipaIDGAF
[20-15-11-14-18-21-18-16]
----------------------------------------------------------------------------------------------------------------------------------
Image
17 12 12 Kendrick LamarLOVE. (Featuring Zacari)
[50-40-21-13-11-11-9-6-9-11-12-17]
----------------------------------------------------------------------------------------------------------------------------------
Image
18 14 10 Sarah BlaskoA Shot
[13-6-6-7-8-10-10-12-14-18]
----------------------------------------------------------------------------------------------------------------------------------
Image
19 10 13 The Weeknd & Kendrick LamarPray For Me
[50-43-38-22-11-8-5-4-5-6-8-10-19]
----------------------------------------------------------------------------------------------------------------------------------
Image
20 20 05 Foster The PeopleSit Next To Me
[36-28-24-20-20]
----------------------------------------------------------------------------------------------------------------------------------
Image
21 00 01 Ed SheeranHappier
[21]
----------------------------------------------------------------------------------------------------------------------------------
Image
22 23 06 Capital CitiesMy Name Is Mars
[47-37-34-26-23-22]
----------------------------------------------------------------------------------------------------------------------------------
Image
23 25 06 KodalineFollow Your Fire
[46-43-40-34-25-23]
----------------------------------------------------------------------------------------------------------------------------------
Image
24 16 13 Paloma FaithTil I'm Done
[43-24-8-6-7-9-12-13-16-13-15-16-24]
----------------------------------------------------------------------------------------------------------------------------------
Image
25 21 13 James BayWild Love
[24-16-15-11-15-18-20-18-15-16-16-21-25]
----------------------------------------------------------------------------------------------------------------------------------
Image
26 27 04 Janelle MonáePynk (Featuring Grimes)
[47-37-27-26]
----------------------------------------------------------------------------------------------------------------------------------
Image
27 17 08 Ed SheeranSupermarket Flowers
[4-3-6-7-7-9-17-27]
----------------------------------------------------------------------------------------------------------------------------------
Image
28 38 02 BazziMine
[38-28]
----------------------------------------------------------------------------------------------------------------------------------
Image
29 29 04 Alice MertonNo Roots
[36-31-29-29]
----------------------------------------------------------------------------------------------------------------------------------
Image
30 22 10 Sarah BlaskoNever Let Me Go
[19-16-13-10-10-13-17-19-22-30]
----------------------------------------------------------------------------------------------------------------------------------
Image
31 19 15 Lady GagaJoanne (Where Do You Think You're Goin'?) (Piano Version)
[15-6-3-2-1-2-3-3-6-12-11-14-18-19-31]
----------------------------------------------------------------------------------------------------------------------------------
Image
32 24 08 Vance JoyCall If You Need Me
[37-29-31-38-30-30-24-32]
----------------------------------------------------------------------------------------------------------------------------------
Image
33 39 02 Calvin Harris & Dua LipaOne Kiss
[39-33]
----------------------------------------------------------------------------------------------------------------------------------
Image
34 26 18 Kendrick Lamar & SZAAll The Stars
[48-37-34-16-9-4-3-2-1-1-2-4-3-9-15-20-26-34]
----------------------------------------------------------------------------------------------------------------------------------
Image
35 32 15 Julia MichaelsHeaven
[48-44-34-21-17-12-8-10-13-19-21-22-27-32-35]
----------------------------------------------------------------------------------------------------------------------------------
Image
36 30 16 G-Eazy & HalseyHim & I
[18-2-1-2-5-4-8-9-12-14-16-18-21-25-30-36]
----------------------------------------------------------------------------------------------------------------------------------
Image
37 28 12 U2Get Out Of Your Own Way
[42-34-29-20-16-16-14-12-20-22-28-37]
----------------------------------------------------------------------------------------------------------------------------------
Image
38 33 06 MigosWalk It Talk It (Featuring Drake)
[50-45-48-39-33-38]
----------------------------------------------------------------------------------------------------------------------------------
Image
39 31 09 Lisa StansfieldBillionaire
[37-25-23-22-20-23-23-31-39]
----------------------------------------------------------------------------------------------------------------------------------
Image
40 00 01 Troye SivanBloom
[40]
----------------------------------------------------------------------------------------------------------------------------------
Image
41 34 08 Arcade FirePut Your Money On Me
[41-35-32-24-29-29-34-41]
----------------------------------------------------------------------------------------------------------------------------------
Image
42 40 05 Jhené AikoSativa (Featuring Rae Sremmurd)
[49-46-40-40-42]
----------------------------------------------------------------------------------------------------------------------------------
Image
43 35 17 Vance JoyWe're Going Home
[28-16-13-13-11-11-10-5-5-7-9-15-19-24-28-35-43]
----------------------------------------------------------------------------------------------------------------------------------
Image
44 00 01 Julia MichaelsJump (Featuring Trippie Redd)
[44]
----------------------------------------------------------------------------------------------------------------------------------
Image
45 00 01 Christina AguileraAccelerate (Featuring Ty Dolla $ign & 2 Chainz)
[45]
----------------------------------------------------------------------------------------------------------------------------------
Image
46 47 03 DrakeNice For What
[50-47-46]
----------------------------------------------------------------------------------------------------------------------------------
Image
47 37 20 Jennifer HudsonBurden Down
[48-31-27-18-12-9-4-5-4-7-10-12-15-19-20-23-27-35-37-47]
----------------------------------------------------------------------------------------------------------------------------------
Image
48 41 10 Janelle MonáeMake Me Feel
[44-30-22-21-21-28-33-38-41-48]
----------------------------------------------------------------------------------------------------------------------------------
Image
49 36 15 Justin TimberlakeSay Something (Featuring Chris Stapleton)
[47-45-23-7-5-7-10-17-22-25-25-31-32-36-49]
----------------------------------------------------------------------------------------------------------------------------------
Image
50 43 15 MigosStir Fry
[44-41-38-34-31-26-27-33-31-34-32-39-36-43-50]
----------------------------------------------------------------------------------------------------------------------------------
OUT
----------------------------------------------------------------------------------------------------------------------------------
42 10 EditorsHallelujah (So Low)
[45-43-39-40-33-28-22-26-33-42]
----------------------------------------------------------------------------------------------------------------------------------
44 19 SZA x Calvin HarrisThe Weekend (Funk Wav Remix)
[50-42-36-32-27-24-21-19-14-14-18-19-21-27-24-31-38-45-44]
----------------------------------------------------------------------------------------------------------------------------------
45 20 HAIMWalking Away
[40-30-18-10-6-6-7-12-18-22-26-31-33-39-36-33-29-37-41-45]
----------------------------------------------------------------------------------------------------------------------------------
46 14 Bruno Mars & Cardi BFinesse (Remix)
[37-17-7-8-6-9-14-14-18-23-27-35-42-46]
----------------------------------------------------------------------------------------------------------------------------------
48 08 SadeFlower Of The Universe
[42-44-43-45-41-44-44-48]
----------------------------------------------------------------------------------------------------------------------------------
49 10 Tom WalkerLeave A Light On
[48-39-24-23-25-30-35-42-43-49]
----------------------------------------------------------------------------------------------------------------------------------
50 01 Nothing But ThievesCrazy
[50]
----------------------------------------------------------------------------------------------------------------------------------
User avatar
LittleArsonist
Personal Assistant
 
Posts: 911
Joined: Wed Jan 14, 2004

Postby LittleArsonist » Mon May 14, 2018 10:00 pm

TW LW WI
artist
track title
[chartrun]
----------------------------------------------------------------------------------------------------------------------------------
50:иgѕ (19/52) - week ending May 13
----------------------------------------------------------------------------------------------------------------------------------

----------------------------------------------------------------------------------------------------------------------------------
Image
01 01 02 Florence + The MachineHunger
[1-1]
----------------------------------------------------------------------------------------------------------------------------------
Image
02 03 08 Shawn MendesIn My Blood
[45-29-17-12-6-2-3-2]
----------------------------------------------------------------------------------------------------------------------------------
Image
03 02 02 Snow PatrolWhat If This Is All the Love You Ever Get?
[2-3]
----------------------------------------------------------------------------------------------------------------------------------
Image
04 05 06 The WeekndCall Out My Name
[26-19-10-5-5-4]
----------------------------------------------------------------------------------------------------------------------------------
Image
05 04 05 Snow PatrolLife On Earth
[1-1-1-4-5]
----------------------------------------------------------------------------------------------------------------------------------
Image
06 06 12 Imagine DragonsNext To Me
[20-3-2-1-1-1-1-2-2-3-6-6]
----------------------------------------------------------------------------------------------------------------------------------
Image
07 08 09 HalseyAlone
[32-26-17-8-11-7-7-8-7]
----------------------------------------------------------------------------------------------------------------------------------
Image
08 11 02 Céline DionAshes
[11-8]
----------------------------------------------------------------------------------------------------------------------------------
Image
09 09 08 George EzraParadise
[50-37-30-25-17-11-9-9]
----------------------------------------------------------------------------------------------------------------------------------
Image
10 12 08 Snow PatrolDon't Give In
[2-2-2-3-5-8-12-10]
----------------------------------------------------------------------------------------------------------------------------------
Image
11 13 03 James BayUs
[15-13-11]
----------------------------------------------------------------------------------------------------------------------------------
Image
12 10 05 Florence + The MachineSky Full Of Song
[5-3-4-10-12]
----------------------------------------------------------------------------------------------------------------------------------
Image
13 16 09 Dua LipaIDGAF
[20-15-11-14-18-21-18-16-13]
----------------------------------------------------------------------------------------------------------------------------------
Image
14 07 06 Khalid & NormaniLove Lies
[40-32-14-6-7-14]
----------------------------------------------------------------------------------------------------------------------------------
Image
15 14 10 James BayPink Lemonade
[34-27-17-5-3-4-4-9-14-15]
----------------------------------------------------------------------------------------------------------------------------------
Image
16 15 15 P!nkWild Hearts Can't Be Broken
[2-1-1-3-4-4-5-8-7-4-8-13-13-15-16]
----------------------------------------------------------------------------------------------------------------------------------
Image
17 00 01 Childish GambinoThis Is America
[17]
----------------------------------------------------------------------------------------------------------------------------------
Image
18 00 01 Ella MaiBoo'd Up
[18]
----------------------------------------------------------------------------------------------------------------------------------
Image
19 18 11 Sarah BlaskoA Shot
[13-6-6-7-8-10-10-12-14-18-19]
----------------------------------------------------------------------------------------------------------------------------------
Image
20 28 03 BazziMine
[38-28-20]
----------------------------------------------------------------------------------------------------------------------------------
Image
21 21 02 Ed SheeranHappier
[21-21]
----------------------------------------------------------------------------------------------------------------------------------
Image
22 20 06 Foster The PeopleSit Next To Me
[36-28-24-20-20-22]
----------------------------------------------------------------------------------------------------------------------------------
Image
23 23 07 KodalineFollow Your Fire
[46-43-40-34-25-23-23]
----------------------------------------------------------------------------------------------------------------------------------
Image
24 26 05 Janelle MonáePynk (Featuring Grimes)
[47-37-27-26-24]
----------------------------------------------------------------------------------------------------------------------------------
Image
25 29 05 Alice MertonNo Roots
[36-31-29-29-25]
----------------------------------------------------------------------------------------------------------------------------------
Image
26 33 03 Calvin Harris & Dua LipaOne Kiss
[39-33-26]
----------------------------------------------------------------------------------------------------------------------------------
Image
27 17 13 Kendrick LamarLOVE. (Featuring Zacari)
[50-40-21-13-11-11-9-6-9-11-12-17-27]
----------------------------------------------------------------------------------------------------------------------------------
Image
28 22 07 Capital CitiesMy Name Is Mars
[47-37-34-26-23-22-28]
----------------------------------------------------------------------------------------------------------------------------------
Image
29 19 14 The Weeknd & Kendrick LamarPray For Me
[50-43-38-22-11-8-5-4-5-6-8-10-19-29]
----------------------------------------------------------------------------------------------------------------------------------
Image
30 24 14 Paloma FaithTil I'm Done
[43-24-8-6-7-9-12-13-16-13-15-16-24-30]
----------------------------------------------------------------------------------------------------------------------------------
Image
31 25 14 James BayWild Love
[24-16-15-11-15-18-20-18-15-16-16-21-25-31]
----------------------------------------------------------------------------------------------------------------------------------
Image
32 30 11 Sarah BlaskoNever Let Me Go
[19-16-13-10-10-13-17-19-22-30-32]
----------------------------------------------------------------------------------------------------------------------------------
Image
33 27 09 Ed SheeranSupermarket Flowers
[4-3-6-7-7-9-17-27-33]
----------------------------------------------------------------------------------------------------------------------------------
Image
34 40 02 Troye SivanBloom
[40-34]
----------------------------------------------------------------------------------------------------------------------------------
Image
35 31 16 Lady GagaJoanne (Where Do You Think You're Goin'?) (Piano Version)
[15-6-3-2-1-2-3-3-6-12-11-14-18-19-31-35]
----------------------------------------------------------------------------------------------------------------------------------
Image
36 44 02 Julia MichaelsJump (Featuring Trippie Redd)
[44-36]
----------------------------------------------------------------------------------------------------------------------------------
Image
37 32 09 Vance JoyCall If You Need Me
[37-29-31-38-30-30-24-32-37]
----------------------------------------------------------------------------------------------------------------------------------
Image
38 45 02 Christina AguileraAccelerate (Featuring Ty Dolla $ign & 2 Chainz)
[45-38]
----------------------------------------------------------------------------------------------------------------------------------
Image
39 35 16 Julia MichaelsHeaven
[48-44-34-21-17-12-8-10-13-19-21-22-27-32-35-39]
----------------------------------------------------------------------------------------------------------------------------------
Image
40 41 09 Arcade FirePut Your Money On Me
[41-35-32-24-29-29-34-41-40]
----------------------------------------------------------------------------------------------------------------------------------
Image
41 34 19 Kendrick Lamar & SZAAll The Stars
[48-37-34-16-9-4-3-2-1-1-2-4-3-9-15-20-26-34-41]
----------------------------------------------------------------------------------------------------------------------------------
Image
42 37 13 U2Get Out Of Your Own Way
[42-34-29-20-16-16-14-12-20-22-28-37-42]
----------------------------------------------------------------------------------------------------------------------------------
Image
43 36 17 G-Eazy & HalseyHim & I
[18-2-1-2-5-4-8-9-12-14-16-18-21-25-30-36-43]
----------------------------------------------------------------------------------------------------------------------------------
Image
44 42 06 Jhené AikoSativa (Featuring Rae Sremmurd)
[49-46-40-40-42-44]
----------------------------------------------------------------------------------------------------------------------------------
Image
45 39 10 Lisa StansfieldBillionaire
[37-25-23-22-20-23-23-31-39-45]
----------------------------------------------------------------------------------------------------------------------------------
Image
46 00 01 Janelle MonáeI Like That
[46]
----------------------------------------------------------------------------------------------------------------------------------
Image
47 00 01 BastilleQuarter Past Midnight
[47]
----------------------------------------------------------------------------------------------------------------------------------
Image
48 38 07 MigosWalk It Talk It (Featuring Drake)
[50-45-48-39-33-38-48]
----------------------------------------------------------------------------------------------------------------------------------
Image
49 43 18 Vance JoyWe're Going Home
[28-16-13-13-11-11-10-5-5-7-9-15-19-24-28-35-43-49]
----------------------------------------------------------------------------------------------------------------------------------
Image
50 48 11 Janelle MonáeMake Me Feel
[44-30-22-21-21-28-33-38-41-48-50]
----------------------------------------------------------------------------------------------------------------------------------
OUT
----------------------------------------------------------------------------------------------------------------------------------
46 03 DrakeNice For What
[50-47-46]
----------------------------------------------------------------------------------------------------------------------------------
47 20 Jennifer HudsonBurden Down
[48-31-27-18-12-9-4-5-4-7-10-12-15-19-20-23-27-35-37-47]
----------------------------------------------------------------------------------------------------------------------------------
49 15 Justin TimberlakeSay Something (Featuring Chris Stapleton)
[47-45-23-7-5-7-10-17-22-25-25-31-32-36-49]
----------------------------------------------------------------------------------------------------------------------------------
50 15 MigosStir Fry
[44-41-38-34-31-26-27-33-31-34-32-39-36-43-50]
----------------------------------------------------------------------------------------------------------------------------------
Last edited by LittleArsonist on Sat May 19, 2018 1:52 pm, edited 1 time in total.
User avatar
LittleArsonist
Personal Assistant
 
Posts: 911
Joined: Wed Jan 14, 2004

Postby heppolo » Tue May 15, 2018 6:33 am

47 00 01 Bastille • Quarter Past Midnight
[47]

The song is nice enough, but I am still waiting for another indie pop banger from Bastille.
Waffles are checked cookies
User avatar
heppolo
Legend
 
Posts: 19907
Joined: Sun May 17, 2009
Location: interchangeable

Postby LittleArsonist » Sat May 19, 2018 7:23 am

heppolo wrote:47 00 01 Bastille • Quarter Past Midnight
[47]

The song is nice enough, but I am still waiting for another indie pop banger from Bastille.
do you know when a new album is expected to be out?
User avatar
LittleArsonist
Personal Assistant
 
Posts: 911
Joined: Wed Jan 14, 2004

Postby LittleArsonist » Sat May 19, 2018 1:51 pm

TW LW WI
artist
track title
[chartrun]
----------------------------------------------------------------------------------------------------------------------------------
50:иgѕ (20/52) - week ending May 20
----------------------------------------------------------------------------------------------------------------------------------

----------------------------------------------------------------------------------------------------------------------------------
Image
01 00 01 Snow PatrolEmpress
[1]
----------------------------------------------------------------------------------------------------------------------------------
Image
02 02 09 Shawn MendesIn My Blood
[45-29-17-12-6-2-3-2-2]
----------------------------------------------------------------------------------------------------------------------------------
Image
03 17 02 Childish GambinoThis Is America
[17-3]
----------------------------------------------------------------------------------------------------------------------------------
Image
04 01 03 Florence + The MachineHunger
[1-1-4]
----------------------------------------------------------------------------------------------------------------------------------
Image
05 03 03 Snow PatrolWhat If This Is All the Love You Ever Get?
[2-3-5]
----------------------------------------------------------------------------------------------------------------------------------
Image
06 06 13 Imagine DragonsNext To Me
[20-3-2-1-1-1-1-2-2-3-6-6-6]
----------------------------------------------------------------------------------------------------------------------------------
Image
07 05 06 Snow PatrolLife On Earth
[1-1-1-4-5-7]
----------------------------------------------------------------------------------------------------------------------------------
Image
08 08 03 Céline DionAshes
[11-8-8]
----------------------------------------------------------------------------------------------------------------------------------
Image
09 04 07 The WeekndCall Out My Name
[26-19-10-5-5-4-9]
----------------------------------------------------------------------------------------------------------------------------------
Image
10 18 02 Ella MaiBoo'd Up
[18-10]
----------------------------------------------------------------------------------------------------------------------------------
Image
11 10 09 Snow PatrolDon't Give In
[2-2-2-3-5-8-12-10-11]
----------------------------------------------------------------------------------------------------------------------------------
Image
12 12 06 Florence + The MachineSky Full Of Song
[5-3-4-10-12-12]
----------------------------------------------------------------------------------------------------------------------------------
Image
13 07 10 HalseyAlone
[32-26-17-8-11-7-7-8-7-13]
----------------------------------------------------------------------------------------------------------------------------------
Image
14 13 10 Dua LipaIDGAF
[20-15-11-14-18-21-18-16-13-14]
----------------------------------------------------------------------------------------------------------------------------------
Image
15 11 04 James BayUs
[15-13-11-15]
----------------------------------------------------------------------------------------------------------------------------------
Image
16 09 09 George EzraParadise
[50-37-30-25-17-11-9-9-16]
----------------------------------------------------------------------------------------------------------------------------------
Image
17 20 04 BazziMine
[38-28-20-17]
----------------------------------------------------------------------------------------------------------------------------------
Image
18 00 01 Dave Matthews BandSamurai Cop (Oh Joy Begin)
[18]
----------------------------------------------------------------------------------------------------------------------------------
Image
19 26 04 Calvin Harris & Dua LipaOne Kiss
[39-33-26-19]
----------------------------------------------------------------------------------------------------------------------------------
Image
20 14 07 Khalid & NormaniLove Lies
[40-32-14-6-7-14-20]
----------------------------------------------------------------------------------------------------------------------------------
Image
21 21 03 Ed SheeranHappier
[21-21-21]
----------------------------------------------------------------------------------------------------------------------------------
Image
22 25 06 Alice MertonNo Roots
[36-31-29-29-25-22]
----------------------------------------------------------------------------------------------------------------------------------
Image
23 15 11 James BayPink Lemonade
[34-27-17-5-3-4-4-9-14-15-23]
----------------------------------------------------------------------------------------------------------------------------------
Image
24 19 12 Sarah BlaskoA Shot
[13-6-6-7-8-10-10-12-14-18-19-24]
----------------------------------------------------------------------------------------------------------------------------------
Image
25 22 07 Foster The PeopleSit Next To Me
[36-28-24-20-20-22-25]
----------------------------------------------------------------------------------------------------------------------------------
Image
26 16 16 P!nkWild Hearts Can't Be Broken
[2-1-1-3-4-4-5-8-7-4-8-13-13-15-16-26]
----------------------------------------------------------------------------------------------------------------------------------
Image
27 28 08 Capital CitiesMy Name Is Mars
[47-37-34-26-23-22-28-27]
----------------------------------------------------------------------------------------------------------------------------------
Image
28 23 08 KodalineFollow Your Fire
[46-43-40-34-25-23-23-28]
----------------------------------------------------------------------------------------------------------------------------------
Image
29 00 01 Christina AguileraTwice
[29]
----------------------------------------------------------------------------------------------------------------------------------
Image
30 34 03 Troye SivanBloom
[40-34-30]
----------------------------------------------------------------------------------------------------------------------------------
Image
31 36 03 Julia MichaelsJump (Featuring Trippie Redd)
[44-36-31]
----------------------------------------------------------------------------------------------------------------------------------
Image
32 00 01 John MayerNew Light
[32]
----------------------------------------------------------------------------------------------------------------------------------
Image
33 30 15 Paloma FaithTil I'm Done
[43-24-8-6-7-9-12-13-16-13-15-16-24-30-33]
----------------------------------------------------------------------------------------------------------------------------------
Image
34 32 12 Sarah BlaskoNever Let Me Go
[19-16-13-10-10-13-17-19-22-30-32-34]
----------------------------------------------------------------------------------------------------------------------------------
Image
35 38 03 Christina AguileraAccelerate (Featuring Ty Dolla $ign & 2 Chainz)
[45-38-35]
----------------------------------------------------------------------------------------------------------------------------------
Image
36 24 06 Janelle MonáePynk (Featuring Grimes)
[47-37-27-26-24-36]
----------------------------------------------------------------------------------------------------------------------------------
Image
37 27 14 Kendrick LamarLOVE. (Featuring Zacari)
[50-40-21-13-11-11-9-6-9-11-12-17-27-37]
----------------------------------------------------------------------------------------------------------------------------------
Image
38 31 15 James BayWild Love
[24-16-15-11-15-18-20-18-15-16-16-21-25-31-38]
----------------------------------------------------------------------------------------------------------------------------------
Image
39 33 10 Ed SheeranSupermarket Flowers
[4-3-6-7-7-9-17-27-33-39]
----------------------------------------------------------------------------------------------------------------------------------
Image
40 29 15 The Weeknd & Kendrick LamarPray For Me
[50-43-38-22-11-8-5-4-5-6-8-10-19-29-40]
----------------------------------------------------------------------------------------------------------------------------------
Image
41 00 01 Lenny KravitzIt's Enough
[41]
----------------------------------------------------------------------------------------------------------------------------------
Image
42 47 02 BastilleQuarter Past Midnight
[47-42]
----------------------------------------------------------------------------------------------------------------------------------
Image
43 37 10 Vance JoyCall If You Need Me
[37-29-31-38-30-30-24-32-37-43]
----------------------------------------------------------------------------------------------------------------------------------
Image
44 00 01 Shawn MendesYouth (Featuring Khalid)
[44]
----------------------------------------------------------------------------------------------------------------------------------
Image
45 35 17 Lady GagaJoanne (Where Do You Think You're Goin'?) (Piano Version)
[15-6-3-2-1-2-3-3-6-12-11-14-18-19-31-35-45]
----------------------------------------------------------------------------------------------------------------------------------
Image
46 00 01 PassengerHell Or High Water
[46]
----------------------------------------------------------------------------------------------------------------------------------
Image
47 40 10 Arcade FirePut Your Money On Me
[41-35-32-24-29-29-34-41-40-47]
----------------------------------------------------------------------------------------------------------------------------------
Image
48 39 17 Julia MichaelsHeaven
[48-44-34-21-17-12-8-10-13-19-21-22-27-32-35-39-48]
----------------------------------------------------------------------------------------------------------------------------------
Image
49 00 01 PJ Harvey & Harry EscottAn Acre of Land
[49]
----------------------------------------------------------------------------------------------------------------------------------
Image
50 41 20 Kendrick Lamar & SZAAll The Stars
[48-37-34-16-9-4-3-2-1-1-2-4-3-9-15-20-26-34-41]
----------------------------------------------------------------------------------------------------------------------------------
OUT
----------------------------------------------------------------------------------------------------------------------------------
42 13 U2Get Out Of Your Own Way
[42-34-29-20-16-16-14-12-20-22-28-37-42]
----------------------------------------------------------------------------------------------------------------------------------
43 17 G-Eazy & HalseyHim & I
[18-2-1-2-5-4-8-9-12-14-16-18-21-25-30-36-43]
----------------------------------------------------------------------------------------------------------------------------------
44 06 Jhené AikoSativa (Featuring Rae Sremmurd)
[49-46-40-40-42-44]
----------------------------------------------------------------------------------------------------------------------------------
45 10 Lisa StansfieldBillionaire
[37-25-23-22-20-23-23-31-39-45]
----------------------------------------------------------------------------------------------------------------------------------
46 01 Janelle MonáeI Like That
[46]
----------------------------------------------------------------------------------------------------------------------------------
48 07 MigosWalk It Talk It (Featuring Drake)
[50-45-48-39-33-38-48]
----------------------------------------------------------------------------------------------------------------------------------
49 18 Vance JoyWe're Going Home
[28-16-13-13-11-11-10-5-5-7-9-15-19-24-28-35-43-49]
----------------------------------------------------------------------------------------------------------------------------------
50 11 Janelle MonáeMake Me Feel
[44-30-22-21-21-28-33-38-41-48-50]
----------------------------------------------------------------------------------------------------------------------------------
User avatar
LittleArsonist
Personal Assistant
 
Posts: 911
Joined: Wed Jan 14, 2004

Postby heppolo » Sat May 19, 2018 6:03 pm

01 01 02 Florence + The Machine • Hunger
[1-1]

Florence hanging on to the #1 spot is great.
Waffles are checked cookies
User avatar
heppolo
Legend
 
Posts: 19907
Joined: Sun May 17, 2009
Location: interchangeable

Postby LittleArsonist » Fri May 25, 2018 10:47 pm

TW LW WI
artist
track title
[chartrun]
----------------------------------------------------------------------------------------------------------------------------------
50:иgѕ (21/52) - week ending May 27
----------------------------------------------------------------------------------------------------------------------------------

----------------------------------------------------------------------------------------------------------------------------------
Image
01 02 10 Shawn MendesIn My Blood
[45-29-17-12-6-2-3-2-2-1]
----------------------------------------------------------------------------------------------------------------------------------
Image
02 03 03 Childish GambinoThis Is America
[17-3-2]
----------------------------------------------------------------------------------------------------------------------------------
Image
03 01 02 Snow PatrolEmpress
[1-3]
----------------------------------------------------------------------------------------------------------------------------------
Image
04 04 04 Florence + The MachineHunger
[1-1-4-4]
----------------------------------------------------------------------------------------------------------------------------------
Image
05 10 03 Ella MaiBoo'd Up
[18-10-5]
----------------------------------------------------------------------------------------------------------------------------------
Image
06 18 02 Dave Matthews BandSamurai Cop (Oh Joy Begin)
[18-6]
----------------------------------------------------------------------------------------------------------------------------------
Image
07 05 04 Snow PatrolWhat If This Is All the Love You Ever Get?
[2-3-5-7]
----------------------------------------------------------------------------------------------------------------------------------
Image
08 11 10 Snow PatrolDon't Give In
[2-2-2-3-5-8-12-10-11-8]
----------------------------------------------------------------------------------------------------------------------------------
Image
09 07 07 Snow PatrolLife On Earth
[1-1-1-4-5-7-9]
----------------------------------------------------------------------------------------------------------------------------------
Image
10 06 14 Imagine DragonsNext To Me
[20-3-2-1-1-1-1-2-2-3-6-6-6-10]
----------------------------------------------------------------------------------------------------------------------------------
Image
11 12 07 Florence + The MachineSky Full Of Song
[5-3-4-10-12-12-11]
----------------------------------------------------------------------------------------------------------------------------------
Image
12 19 05 Calvin Harris & Dua LipaOne Kiss
[39-33-26-19-12]
----------------------------------------------------------------------------------------------------------------------------------
Image
13 15 05 James BayUs
[15-13-11-15-13]
----------------------------------------------------------------------------------------------------------------------------------
Image
14 08 04 Céline DionAshes
[11-8-8-14]
----------------------------------------------------------------------------------------------------------------------------------
Image
15 14 11 Dua LipaIDGAF
[20-15-11-14-18-21-18-16-13-14-15]
----------------------------------------------------------------------------------------------------------------------------------
Image
16 09 08 The WeekndCall Out My Name
[26-19-10-5-5-4-9-16]
----------------------------------------------------------------------------------------------------------------------------------
Image
17 17 05 BazziMine
[38-28-20-17-17]
----------------------------------------------------------------------------------------------------------------------------------
Image
18 13 11 HalseyAlone
[32-26-17-8-11-7-7-8-7-13-18]
----------------------------------------------------------------------------------------------------------------------------------
Image
19 16 10 George EzraParadise
[50-37-30-25-17-11-9-9-16-19]
----------------------------------------------------------------------------------------------------------------------------------
Image
20 20 08 Khalid & NormaniLove Lies
[40-32-14-6-7-14-20-20]
----------------------------------------------------------------------------------------------------------------------------------
Image
21 29 02 Christina AguileraTwice
[29-21]
----------------------------------------------------------------------------------------------------------------------------------
Image
22 21 04 Ed SheeranHappier
[21-21-21-22]
----------------------------------------------------------------------------------------------------------------------------------
Image
23 22 07 Alice MertonNo Roots
[36-31-29-29-25-22-23]
----------------------------------------------------------------------------------------------------------------------------------
Image
24 24 13 Sarah BlaskoA Shot
[13-6-6-7-8-10-10-12-14-18-19-24-24]
----------------------------------------------------------------------------------------------------------------------------------
Image
25 44 02 Shawn MendesYouth (Featuring Khalid)
[44-25]
----------------------------------------------------------------------------------------------------------------------------------
Image
26 23 12 James BayPink Lemonade
[34-27-17-5-3-4-4-9-14-15-23-26]
----------------------------------------------------------------------------------------------------------------------------------
Image
27 27 09 Capital CitiesMy Name Is Mars
[47-37-34-26-23-22-28-27-27]
----------------------------------------------------------------------------------------------------------------------------------
Image
28 25 08 Foster The PeopleSit Next To Me
[36-28-24-20-20-22-25-28]
----------------------------------------------------------------------------------------------------------------------------------
Image
29 41 02 Lenny KravitzIt's Enough
[41-29]
----------------------------------------------------------------------------------------------------------------------------------
Image
30 32 02 John MayerNew Light
[32-30]
----------------------------------------------------------------------------------------------------------------------------------
Image
31 30 04 Troye SivanBloom
[40-34-30-31]
----------------------------------------------------------------------------------------------------------------------------------
Image
32 28 09 KodalineFollow Your Fire
[46-43-40-34-25-23-23-28-32]
----------------------------------------------------------------------------------------------------------------------------------
Image
33 31 04 Julia MichaelsJump (Featuring Trippie Redd)
[44-36-31-33]
----------------------------------------------------------------------------------------------------------------------------------
Image
34 26 17 P!nkWild Hearts Can't Be Broken
[2-1-1-3-4-4-5-8-7-4-8-13-13-15-16-26-34]
----------------------------------------------------------------------------------------------------------------------------------
Image
35 35 04 Christina AguileraAccelerate (Featuring Ty Dolla $ign & 2 Chainz)
[45-38-35-35]
----------------------------------------------------------------------------------------------------------------------------------
Image
36 34 13 Sarah BlaskoNever Let Me Go
[19-16-13-10-10-13-17-19-22-30-32-34-36]
----------------------------------------------------------------------------------------------------------------------------------
Image
37 46 02 PassengerHell Or High Water
[46-37]
----------------------------------------------------------------------------------------------------------------------------------
Image
38 33 16 Paloma FaithTil I'm Done
[43-24-8-6-7-9-12-13-16-13-15-16-24-30-33-38]
----------------------------------------------------------------------------------------------------------------------------------
Image
39 37 15 Kendrick LamarLOVE. (Featuring Zacari)
[50-40-21-13-11-11-9-6-9-11-12-17-27-37-39]
----------------------------------------------------------------------------------------------------------------------------------
Image
40 49 02 PJ Harvey & Harry EscottAn Acre of Land
[49-40]
----------------------------------------------------------------------------------------------------------------------------------
Image
41 00 01 Calum ScottWhat I Miss Most
[41]
----------------------------------------------------------------------------------------------------------------------------------
Image
42 42 03 BastilleQuarter Past Midnight
[47-42-42]
----------------------------------------------------------------------------------------------------------------------------------
Image
43 38 16 James BayWild Love
[24-16-15-11-15-18-20-18-15-16-16-21-25-31-38-43]
----------------------------------------------------------------------------------------------------------------------------------
Image
44 36 07 Janelle MonáePynk (Featuring Grimes)
[47-37-27-26-24-36-44]
----------------------------------------------------------------------------------------------------------------------------------
Image
45 39 11 Ed SheeranSupermarket Flowers
[4-3-6-7-7-9-17-27-33-39-45]
----------------------------------------------------------------------------------------------------------------------------------
Image
46 43 11 Vance JoyCall If You Need Me
[37-29-31-38-30-30-24-32-37-43-46]
----------------------------------------------------------------------------------------------------------------------------------
Image
47 40 16 The Weeknd & Kendrick LamarPray For Me
[50-43-38-22-11-8-5-4-5-6-8-10-19-29-40-47]
----------------------------------------------------------------------------------------------------------------------------------
Image
48 00 01 Noel Gallagher's High Flying BirdsShe Taught Me How To Fly
[48]
----------------------------------------------------------------------------------------------------------------------------------
Image
49 45 18 Lady GagaJoanne (Where Do You Think You're Goin'?) (Piano Version)
[15-6-3-2-1-2-3-3-6-12-11-14-18-19-31-35-45-49]
----------------------------------------------------------------------------------------------------------------------------------
Image
50 00 01 U2Love Is Bigger Than Anything In Its Way
[50]
----------------------------------------------------------------------------------------------------------------------------------
OUT
----------------------------------------------------------------------------------------------------------------------------------
47 10 Arcade FirePut Your Money On Me
[41-35-32-24-29-29-34-41-40-47]
----------------------------------------------------------------------------------------------------------------------------------
48 17 Julia MichaelsHeaven
[48-44-34-21-17-12-8-10-13-19-21-22-27-32-35-39-48]
----------------------------------------------------------------------------------------------------------------------------------
50 20 Kendrick Lamar & SZAAll The Stars
[48-37-34-16-9-4-3-2-1-1-2-4-3-9-15-20-26-34-41]
----------------------------------------------------------------------------------------------------------------------------------
User avatar
LittleArsonist
Personal Assistant
 
Posts: 911
Joined: Wed Jan 14, 2004

Postby heppolo » Sat May 26, 2018 6:02 am

42 42 03 Bastille • Quarter Past Midnight
[47-42-42]
Now with the help of the official music video it should soar up in the chart.
Waffles are checked cookies
User avatar
heppolo
Legend
 
Posts: 19907
Joined: Sun May 17, 2009
Location: interchangeable

Postby LittleArsonist » Sat Jun 02, 2018 10:21 am

heppolo wrote:42 42 03 Bastille • Quarter Past Midnight
[47-42-42]
Now with the help of the official music video it should soar up in the chart.
still have to watch it tbh :lol:
User avatar
LittleArsonist
Personal Assistant
 
Posts: 911
Joined: Wed Jan 14, 2004

Postby LittleArsonist » Sat Jun 02, 2018 5:18 pm

TW LW WI
artist
track title
[chartrun]
----------------------------------------------------------------------------------------------------------------------------------
50:иgѕ (22/52) - week ending June 3
----------------------------------------------------------------------------------------------------------------------------------

----------------------------------------------------------------------------------------------------------------------------------
Image
01 02 04 Childish GambinoThis Is America
[17-3-2-1]
----------------------------------------------------------------------------------------------------------------------------------
Image
02 01 11 Shawn MendesIn My Blood
[45-29-17-12-6-2-3-2-2-1-2]
----------------------------------------------------------------------------------------------------------------------------------
Image
03 05 04 Ella MaiBoo'd Up
[18-10-5-3]
----------------------------------------------------------------------------------------------------------------------------------
Image
04 06 03 Dave Matthews BandSamurai Cop (Oh Joy Begin)
[18-6-4]
----------------------------------------------------------------------------------------------------------------------------------
Image
05 04 05 Florence + The MachineHunger
[1-1-4-4-5]
----------------------------------------------------------------------------------------------------------------------------------
Image
06 03 03 Snow PatrolEmpress
[1-3-6]
----------------------------------------------------------------------------------------------------------------------------------
Image
07 29 03 Lenny KravitzIt's Enough
[41-29-7]
----------------------------------------------------------------------------------------------------------------------------------
Image
08 08 11 Snow PatrolDon't Give In
[2-2-2-3-5-8-12-10-11-8-8]
----------------------------------------------------------------------------------------------------------------------------------
Image
09 12 06 Calvin Harris & Dua LipaOne Kiss
[39-33-26-19-12-9]
----------------------------------------------------------------------------------------------------------------------------------
Image
10 11 08 Florence + The MachineSky Full Of Song
[5-3-4-10-12-12-11-10]
----------------------------------------------------------------------------------------------------------------------------------
Image
11 13 06 James BayUs
[15-13-11-15-13-11]
----------------------------------------------------------------------------------------------------------------------------------
Image
12 14 05 Céline DionAshes
[11-8-8-14-12]
----------------------------------------------------------------------------------------------------------------------------------
Image
13 09 08 Snow PatrolLife On Earth
[1-1-1-4-5-7-9-13]
----------------------------------------------------------------------------------------------------------------------------------
Image
14 07 05 Snow PatrolWhat If This Is All the Love You Ever Get?
[2-3-5-7-14]
----------------------------------------------------------------------------------------------------------------------------------
Image
15 10 15 Imagine DragonsNext To Me
[20-3-2-1-1-1-1-2-2-3-6-6-6-10-15]
----------------------------------------------------------------------------------------------------------------------------------
Image
16 25 03 Shawn MendesYouth (Featuring Khalid)
[44-25-16]
----------------------------------------------------------------------------------------------------------------------------------
Image
17 15 12 Dua LipaIDGAF
[20-15-11-14-18-21-18-16-13-14-15-17]
----------------------------------------------------------------------------------------------------------------------------------
Image
18 18 12 HalseyAlone
[32-26-17-8-11-7-7-8-7-13-18-18]
----------------------------------------------------------------------------------------------------------------------------------
Image
19 21 03 Christina AguileraTwice
[29-21-19]
----------------------------------------------------------------------------------------------------------------------------------
Image
20 16 09 The WeekndCall Out My Name
[26-19-10-5-5-4-9-16-20]
----------------------------------------------------------------------------------------------------------------------------------
Image
21 00 01 Lenny KravitzLow
[21]
----------------------------------------------------------------------------------------------------------------------------------
Image
22 20 09 Khalid & NormaniLove Lies
[40-32-14-6-7-14-20-20-22]
----------------------------------------------------------------------------------------------------------------------------------
Image
23 22 05 Ed SheeranHappier
[21-21-21-22-23]
----------------------------------------------------------------------------------------------------------------------------------
Image
24 19 11 George EzraParadise
[50-37-30-25-17-11-9-9-16-19-24]
----------------------------------------------------------------------------------------------------------------------------------
Image
25 17 06 BazziMine
[38-28-20-17-17-25]
----------------------------------------------------------------------------------------------------------------------------------
Image
26 24 14 Sarah BlaskoA Shot
[13-6-6-7-8-10-10-12-14-18-19-24-24-26]
----------------------------------------------------------------------------------------------------------------------------------
Image
27 30 03 John MayerNew Light
[32-30-27]
----------------------------------------------------------------------------------------------------------------------------------
Image
28 27 10 Capital CitiesMy Name Is Mars
[47-37-34-26-23-22-28-27-27-28]
----------------------------------------------------------------------------------------------------------------------------------
Image
29 23 08 Alice MertonNo Roots
[36-31-29-29-25-22-23-29]
----------------------------------------------------------------------------------------------------------------------------------
Image
30 37 03 PassengerHell Or High Water
[46-37-30]
----------------------------------------------------------------------------------------------------------------------------------
Image
31 28 09 Foster The PeopleSit Next To Me
[36-28-24-20-20-22-25-28-31]
----------------------------------------------------------------------------------------------------------------------------------
Image
32 26 13 James BayPink Lemonade
[34-27-17-5-3-4-4-9-14-15-23-26-32]
----------------------------------------------------------------------------------------------------------------------------------
Image
33 41 02 Calum ScottWhat I Miss Most
[41-33]
----------------------------------------------------------------------------------------------------------------------------------
Image
34 31 05 Troye SivanBloom
[40-34-30-31-34]
----------------------------------------------------------------------------------------------------------------------------------
Image
35 40 03 PJ Harvey & Harry EscottAn Acre of Land
[49-40-35]
----------------------------------------------------------------------------------------------------------------------------------
Image
36 00 01 Christine and the QueensGirlfriend (featuring Dâm-Funk)
[36]
----------------------------------------------------------------------------------------------------------------------------------
Image
37 32 10 KodalineFollow Your Fire
[46-43-40-34-25-23-23-28-32-37]
----------------------------------------------------------------------------------------------------------------------------------
Image
38 33 05 Julia MichaelsJump (Featuring Trippie Redd)
[44-36-31-33-38]
----------------------------------------------------------------------------------------------------------------------------------
Image
39 36 14 Sarah BlaskoNever Let Me Go
[19-16-13-10-10-13-17-19-22-30-32-34-36-39]
----------------------------------------------------------------------------------------------------------------------------------
Image
40 42 04 BastilleQuarter Past Midnight
[47-42-42-40]
----------------------------------------------------------------------------------------------------------------------------------
Image
41 34 18 P!nkWild Hearts Can't Be Broken
[2-1-1-3-4-4-5-8-7-4-8-13-13-15-16-26-34-41]
----------------------------------------------------------------------------------------------------------------------------------
Image
42 48 02 Noel Gallagher's High Flying BirdsShe Taught Me How To Fly
[48-42]
----------------------------------------------------------------------------------------------------------------------------------
Image
43 00 01 David Guetta & SiaFlames
[43]
----------------------------------------------------------------------------------------------------------------------------------
Image
44 35 05 Christina AguileraAccelerate (Featuring Ty Dolla $ign & 2 Chainz)
[45-38-35-35-44]
----------------------------------------------------------------------------------------------------------------------------------
Image
45 50 02 U2Love Is Bigger Than Anything In Its Way
[50-45]
----------------------------------------------------------------------------------------------------------------------------------
Image
46 38 17 Paloma FaithTil I'm Done
[43-24-8-6-7-9-12-13-16-13-15-16-24-30-33-38-46]
----------------------------------------------------------------------------------------------------------------------------------
Image
47 43 17 James BayWild Love
[24-16-15-11-15-18-20-18-15-16-16-21-25-31-38-43-47]
----------------------------------------------------------------------------------------------------------------------------------
Image
48 39 16 Kendrick LamarLOVE. (Featuring Zacari)
[50-40-21-13-11-11-9-6-9-11-12-17-27-37-39-48]
----------------------------------------------------------------------------------------------------------------------------------
Image
49 49 19 Lady GagaJoanne (Where Do You Think You're Goin'?) (Piano Version)
[15-6-3-2-1-2-3-3-6-12-11-14-18-19-31-35-45-49-49]
----------------------------------------------------------------------------------------------------------------------------------
Image
50 45 12 Ed SheeranSupermarket Flowers
[4-3-6-7-7-9-17-27-33-39-45-50]
----------------------------------------------------------------------------------------------------------------------------------
OUT
----------------------------------------------------------------------------------------------------------------------------------
44 07 Janelle MonáePynk (Featuring Grimes)
[47-37-27-26-24-36-44]
----------------------------------------------------------------------------------------------------------------------------------
46 11 Vance JoyCall If You Need Me
[37-29-31-38-30-30-24-32-37-43-46]
----------------------------------------------------------------------------------------------------------------------------------
47 16 The Weeknd & Kendrick LamarPray For Me
[50-43-38-22-11-8-5-4-5-6-8-10-19-29-40-47]
----------------------------------------------------------------------------------------------------------------------------------
User avatar
LittleArsonist
Personal Assistant
 
Posts: 911
Joined: Wed Jan 14, 2004

Postby heppolo » Sat Jun 02, 2018 5:23 pm

36 00 01 Christine and the Queens • Girlfriend (featuring Dâm-Funk)
Not up to par with Christine's best hits, but I stil enjoy it. The music video is also fitting. especially the dancing moves.
Waffles are checked cookies
User avatar
heppolo
Legend
 
Posts: 19907
Joined: Sun May 17, 2009
Location: interchangeable

Postby LittleArsonist » Fri Jun 08, 2018 9:44 am

TW LW WI
artist
track title
[chartrun]
----------------------------------------------------------------------------------------------------------------------------------
50:иgѕ (23/52) - week ending June 10
----------------------------------------------------------------------------------------------------------------------------------

----------------------------------------------------------------------------------------------------------------------------------
Image
01 01 05 Childish GambinoThis Is America
[17-3-2-1-1]
----------------------------------------------------------------------------------------------------------------------------------
Image
02 02 12 Shawn MendesIn My Blood
[45-29-17-12-6-2-3-2-2-1-2-2]
----------------------------------------------------------------------------------------------------------------------------------
Image
03 03 05 Ella MaiBoo'd Up
[18-10-5-3-3]
----------------------------------------------------------------------------------------------------------------------------------
Image
04 05 06 Florence + The MachineHunger
[1-1-4-4-5-4]
----------------------------------------------------------------------------------------------------------------------------------
Image
05 06 04 Snow PatrolEmpress
[1-3-6-5]
----------------------------------------------------------------------------------------------------------------------------------
Image
06 09 07 Calvin Harris & Dua LipaOne Kiss
[39-33-26-19-12-9-6]
----------------------------------------------------------------------------------------------------------------------------------
Image
07 07 04 Lenny KravitzIt's Enough
[41-29-7-7]
----------------------------------------------------------------------------------------------------------------------------------
Image
08 04 04 Dave Matthews BandSamurai Cop (Oh Joy Begin)
[18-6-4-8]
----------------------------------------------------------------------------------------------------------------------------------
Image
09 13 09 Snow PatrolLife On Earth
[1-1-1-4-5-7-9-13-9]
----------------------------------------------------------------------------------------------------------------------------------
Image
10 16 04 Shawn MendesYouth (Featuring Khalid)
[44-25-16-10]
----------------------------------------------------------------------------------------------------------------------------------
Image
11 11 07 James BayUs
[15-13-11-15-13-11-11]
----------------------------------------------------------------------------------------------------------------------------------
Image
12 08 12 Snow PatrolDon't Give In
[2-2-2-3-5-8-12-10-11-8-8-12]
----------------------------------------------------------------------------------------------------------------------------------
Image
13 10 09 Florence + The MachineSky Full Of Song
[5-3-4-10-12-12-11-10-13]
----------------------------------------------------------------------------------------------------------------------------------
Image
14 30 04 PassengerHell Or High Water
[46-37-30-14]
----------------------------------------------------------------------------------------------------------------------------------
Image
15 12 06 Céline DionAshes
[11-8-8-14-12-15]
----------------------------------------------------------------------------------------------------------------------------------
Image
16 19 04 Christina AguileraTwice
[29-21-19-16]
----------------------------------------------------------------------------------------------------------------------------------
Image
17 15 16 Imagine DragonsNext To Me
[20-3-2-1-1-1-1-2-2-3-6-6-6-10-15-17]
----------------------------------------------------------------------------------------------------------------------------------
Image
18 21 02 Lenny KravitzLow
[21-18]
----------------------------------------------------------------------------------------------------------------------------------
Image
19 14 06 Snow PatrolWhat If This Is All the Love You Ever Get?
[2-3-5-7-14-19]
----------------------------------------------------------------------------------------------------------------------------------
Image
20 17 13 Dua LipaIDGAF
[20-15-11-14-18-21-18-16-13-14-15-17-20]
----------------------------------------------------------------------------------------------------------------------------------
Image
21 27 04 John MayerNew Light
[32-30-27-21]
----------------------------------------------------------------------------------------------------------------------------------
Image
22 33 03 Calum ScottWhat I Miss Most
[41-33-22]
----------------------------------------------------------------------------------------------------------------------------------
Image
23 18 13 HalseyAlone
[32-26-17-8-11-7-7-8-7-13-18-18-23]
----------------------------------------------------------------------------------------------------------------------------------
Image
24 22 10 Khalid & NormaniLove Lies
[40-32-14-6-7-14-20-20-22-24]
----------------------------------------------------------------------------------------------------------------------------------
Image
25 25 07 BazziMine
[38-28-20-17-17-25-25]
----------------------------------------------------------------------------------------------------------------------------------
Image
26 20 10 The WeekndCall Out My Name
[26-19-10-5-5-4-9-16-20-26]
----------------------------------------------------------------------------------------------------------------------------------
Image
27 35 04 PJ Harvey & Harry EscottAn Acre of Land
[49-40-35-27]
----------------------------------------------------------------------------------------------------------------------------------
Image
28 26 15 Sarah BlaskoA Shot
[13-6-6-7-8-10-10-12-14-18-19-24-24-26-28]
----------------------------------------------------------------------------------------------------------------------------------
Image
29 23 06 Ed SheeranHappier
[21-21-21-22-23-29]
----------------------------------------------------------------------------------------------------------------------------------
Image
30 36 02 Christine and the QueensGirlfriend (featuring Dâm-Funk)
[36-30]
----------------------------------------------------------------------------------------------------------------------------------
Image
31 24 12 George EzraParadise
[50-37-30-25-17-11-9-9-16-19-24-31]
----------------------------------------------------------------------------------------------------------------------------------
Image
32 43 02 David Guetta & SiaFlames
[43-32]
----------------------------------------------------------------------------------------------------------------------------------
Image
33 28 11 Capital CitiesMy Name Is Mars
[47-37-34-26-23-22-28-27-27-28-33]
----------------------------------------------------------------------------------------------------------------------------------
Image
34 45 03 U2Love Is Bigger Than Anything In Its Way
[50-45-34]
----------------------------------------------------------------------------------------------------------------------------------
Image
35 31 10 Foster The PeopleSit Next To Me
[36-28-24-20-20-22-25-28-31-35]
----------------------------------------------------------------------------------------------------------------------------------
Image
36 39 15 Sarah BlaskoNever Let Me Go
[19-16-13-10-10-13-17-19-22-30-32-34-36-39-36]
----------------------------------------------------------------------------------------------------------------------------------
Image
37 29 09 Alice MertonNo Roots
[36-31-29-29-25-22-23-29-37]
----------------------------------------------------------------------------------------------------------------------------------
Image
38 42 03 Noel Gallagher's High Flying BirdsShe Taught Me How To Fly
[48-42-38]
----------------------------------------------------------------------------------------------------------------------------------
Image
39 40 05 BastilleQuarter Past Midnight
[47-42-42-40-39]
----------------------------------------------------------------------------------------------------------------------------------
Image
40 34 06 Troye SivanBloom
[40-34-30-31-34-40]
----------------------------------------------------------------------------------------------------------------------------------
Image
41 32 14 James BayPink Lemonade
[34-27-17-5-3-4-4-9-14-15-23-26-32-41]
----------------------------------------------------------------------------------------------------------------------------------
Image
42 38 06 Julia MichaelsJump (Featuring Trippie Redd)
[44-36-31-33-38-42]
----------------------------------------------------------------------------------------------------------------------------------
Image
43 37 11 KodalineFollow Your Fire
[46-43-40-34-25-23-23-28-32-37-43]
----------------------------------------------------------------------------------------------------------------------------------
Image
44 00 01 George EzraShotgun
[44]
----------------------------------------------------------------------------------------------------------------------------------
Image
45 41 19 P!nkWild Hearts Can't Be Broken
[2-1-1-3-4-4-5-8-7-4-8-13-13-15-16-26-34-41-45]
----------------------------------------------------------------------------------------------------------------------------------
Image
46 48 17 Kendrick LamarLOVE. (Featuring Zacari)
[50-40-21-13-11-11-9-6-9-11-12-17-27-37-39-48-46]
----------------------------------------------------------------------------------------------------------------------------------
Image
47 47 18 James BayWild Love
[24-16-15-11-15-18-20-18-15-16-16-21-25-31-38-43-47-47]
----------------------------------------------------------------------------------------------------------------------------------
Image
48 49 20 Lady GagaJoanne (Where Do You Think You're Goin'?) (Piano Version)
[15-6-3-2-1-2-3-3-6-12-11-14-18-19-31-35-45-49-49-48]
----------------------------------------------------------------------------------------------------------------------------------
Image
49 44 06 Christina AguileraAccelerate (Featuring Ty Dolla $ign & 2 Chainz)
[45-38-35-35-44-49]
----------------------------------------------------------------------------------------------------------------------------------
Image
50 00 01 Vance JoySaturday Sun
[50]
----------------------------------------------------------------------------------------------------------------------------------
OUT
----------------------------------------------------------------------------------------------------------------------------------
46 17 Paloma FaithTil I'm Done
[43-24-8-6-7-9-12-13-16-13-15-16-24-30-33-38-46]
----------------------------------------------------------------------------------------------------------------------------------
50 12 Ed SheeranSupermarket Flowers
[4-3-6-7-7-9-17-27-33-39-45-50]
----------------------------------------------------------------------------------------------------------------------------------
User avatar
LittleArsonist
Personal Assistant
 
Posts: 911
Joined: Wed Jan 14, 2004

Postby LittleArsonist » Fri Jun 15, 2018 5:57 am

TW LW WI
artist
track title
[chartrun]
----------------------------------------------------------------------------------------------------------------------------------
50:иgѕ (24/52) - week ending June 17
----------------------------------------------------------------------------------------------------------------------------------

----------------------------------------------------------------------------------------------------------------------------------
Image
01 03 06 Ella MaiBoo'd Up
[18-10-5-3-3-1]
----------------------------------------------------------------------------------------------------------------------------------
Image
02 01 06 Childish GambinoThis Is America
[17-3-2-1-1-2]
----------------------------------------------------------------------------------------------------------------------------------
Image
03 07 05 Lenny KravitzIt's Enough
[41-29-7-7-3]
----------------------------------------------------------------------------------------------------------------------------------
Image
04 06 08 Calvin Harris & Dua LipaOne Kiss
[39-33-26-19-12-9-6-4]
----------------------------------------------------------------------------------------------------------------------------------
Image
05 02 13 Shawn MendesIn My Blood
[45-29-17-12-6-2-3-2-2-1-2-2-5]
----------------------------------------------------------------------------------------------------------------------------------
Image
06 10 05 Shawn MendesYouth (Featuring Khalid)
[44-25-16-10-6]
----------------------------------------------------------------------------------------------------------------------------------
Image
07 11 08 James BayUs
[15-13-11-15-13-11-11-7]
----------------------------------------------------------------------------------------------------------------------------------
Image
08 04 07 Florence + The MachineHunger
[1-1-4-4-5-4-8]
----------------------------------------------------------------------------------------------------------------------------------
Image
09 08 05 Dave Matthews BandSamurai Cop (Oh Joy Begin)
[18-6-4-8-9]
----------------------------------------------------------------------------------------------------------------------------------
Image
10 14 05 PassengerHell Or High Water
[46-37-30-14-10]
----------------------------------------------------------------------------------------------------------------------------------
Image
11 09 10 Snow PatrolLife On Earth
[1-1-1-4-5-7-9-13-9-11]
----------------------------------------------------------------------------------------------------------------------------------
Image
12 16 05 Christina AguileraTwice
[29-21-19-16-12]
----------------------------------------------------------------------------------------------------------------------------------
Image
13 05 05 Snow PatrolEmpress
[1-3-6-5-13]
----------------------------------------------------------------------------------------------------------------------------------
Image
14 18 03 Lenny KravitzLow
[21-18-14]
----------------------------------------------------------------------------------------------------------------------------------
Image
15 12 13 Snow PatrolDon't Give In
[2-2-2-3-5-8-12-10-11-8-8-12-15]
----------------------------------------------------------------------------------------------------------------------------------
Image
16 13 10 Florence + The MachineSky Full Of Song
[5-3-4-10-12-12-11-10-13-16]
----------------------------------------------------------------------------------------------------------------------------------
Image
17 27 05 PJ Harvey & Harry EscottAn Acre of Land
[49-40-35-27-17]
----------------------------------------------------------------------------------------------------------------------------------
Image
18 21 05 John MayerNew Light
[32-30-27-21-18]
----------------------------------------------------------------------------------------------------------------------------------
Image
19 15 07 Céline DionAshes
[11-8-8-14-12-15-19]
----------------------------------------------------------------------------------------------------------------------------------
Image
20 30 03 Christine and the QueensGirlfriend (featuring Dâm-Funk)
[36-30-20]
----------------------------------------------------------------------------------------------------------------------------------
Image
21 20 14 Dua LipaIDGAF
[20-15-11-14-18-21-18-16-13-14-15-17-20-21]
----------------------------------------------------------------------------------------------------------------------------------
Image
22 22 04 Calum ScottWhat I Miss Most
[41-33-22-22]
----------------------------------------------------------------------------------------------------------------------------------
Image
23 29 07 Ed SheeranHappier
[21-21-21-22-23-29-23]
----------------------------------------------------------------------------------------------------------------------------------
Image
24 17 17 Imagine DragonsNext To Me
[20-3-2-1-1-1-1-2-2-3-6-6-6-10-15-17-24]
----------------------------------------------------------------------------------------------------------------------------------
Image
25 19 07 Snow PatrolWhat If This Is All the Love You Ever Get?
[2-3-5-7-14-19-25]
----------------------------------------------------------------------------------------------------------------------------------
Image
26 23 14 HalseyAlone
[32-26-17-8-11-7-7-8-7-13-18-18-23-26]
----------------------------------------------------------------------------------------------------------------------------------
Image
27 32 03 David Guetta & SiaFlames
[43-32-27]
----------------------------------------------------------------------------------------------------------------------------------
Image
28 25 08 BazziMine
[38-28-20-17-17-25-25-28]
----------------------------------------------------------------------------------------------------------------------------------
Image
29 24 11 Khalid & NormaniLove Lies
[40-32-14-6-7-14-20-20-22-24-29]
----------------------------------------------------------------------------------------------------------------------------------
Image
30 26 11 The WeekndCall Out My Name
[26-19-10-5-5-4-9-16-20-26-30]
----------------------------------------------------------------------------------------------------------------------------------
Image
31 34 04 U2Love Is Bigger Than Anything In Its Way
[50-45-34-31]
----------------------------------------------------------------------------------------------------------------------------------
Image
32 28 16 Sarah BlaskoA Shot
[13-6-6-7-8-10-10-12-14-18-19-24-24-26-28-32]
----------------------------------------------------------------------------------------------------------------------------------
Image
33 39 06 BastilleQuarter Past Midnight
[47-42-42-40-39-33]
----------------------------------------------------------------------------------------------------------------------------------
Image
34 00 01 Chelsea JadeLaugh It Off
[34]
----------------------------------------------------------------------------------------------------------------------------------
Image
35 50 02 Vance JoySaturday Sun
[50-35]
----------------------------------------------------------------------------------------------------------------------------------
Image
36 00 01 KodalineShed A Tear
[36]
----------------------------------------------------------------------------------------------------------------------------------
Image
37 31 13 George EzraParadise
[50-37-30-25-17-11-9-9-16-19-24-31-37]
----------------------------------------------------------------------------------------------------------------------------------
Image
38 38 04 Noel Gallagher's High Flying BirdsShe Taught Me How To Fly
[48-42-38-38]
----------------------------------------------------------------------------------------------------------------------------------
Image
39 33 12 Capital CitiesMy Name Is Mars
[47-37-34-26-23-22-28-27-27-28-33-39]
----------------------------------------------------------------------------------------------------------------------------------
Image
40 44 02 George EzraShotgun
[44-40]
----------------------------------------------------------------------------------------------------------------------------------
Image
41 00 01 Tom OdellIf You Wanna Love Somebody
[41]
----------------------------------------------------------------------------------------------------------------------------------
Image
42 35 11 Foster The PeopleSit Next To Me
[36-28-24-20-20-22-25-28-31-35-42]
----------------------------------------------------------------------------------------------------------------------------------
Image
43 40 07 Troye SivanBloom
[40-34-30-31-34-40-43]
----------------------------------------------------------------------------------------------------------------------------------
Image
44 36 16 Sarah BlaskoNever Let Me Go
[19-16-13-10-10-13-17-19-22-30-32-34-36-39-36-44]
----------------------------------------------------------------------------------------------------------------------------------
Image
45 43 12 KodalineFollow Your Fire
[46-43-40-34-25-23-23-28-32-37-43-45]
----------------------------------------------------------------------------------------------------------------------------------
Image
46 49 07 Christina AguileraAccelerate (Featuring Ty Dolla $ign & 2 Chainz)
[45-38-35-35-44-49-46]
----------------------------------------------------------------------------------------------------------------------------------
Image
47 37 10 Alice MertonNo Roots
[36-31-29-29-25-22-23-29-37-47]
----------------------------------------------------------------------------------------------------------------------------------
Image
48 00 01 Alessia CaraGrowing Pains
[48]
----------------------------------------------------------------------------------------------------------------------------------
Image
49 41 15 James BayPink Lemonade
[34-27-17-5-3-4-4-9-14-15-23-26-32-41-49]
----------------------------------------------------------------------------------------------------------------------------------
Image
50 45 20 P!nkWild Hearts Can't Be Broken
[2-1-1-3-4-4-5-8-7-4-8-13-13-15-16-26-34-41-45-50]
----------------------------------------------------------------------------------------------------------------------------------
OUT
----------------------------------------------------------------------------------------------------------------------------------
42 06 Julia MichaelsJump (Featuring Trippie Redd)
[44-36-31-33-38-42]
----------------------------------------------------------------------------------------------------------------------------------
46 17 Kendrick LamarLOVE. (Featuring Zacari)
[50-40-21-13-11-11-9-6-9-11-12-17-27-37-39-48-46]
----------------------------------------------------------------------------------------------------------------------------------
47 18 James BayWild Love
[24-16-15-11-15-18-20-18-15-16-16-21-25-31-38-43-47-47]
----------------------------------------------------------------------------------------------------------------------------------
48 20 Lady GagaJoanne (Where Do You Think You're Goin'?) (Piano Version)
[15-6-3-2-1-2-3-3-6-12-11-14-18-19-31-35-45-49-49-48]
----------------------------------------------------------------------------------------------------------------------------------
User avatar
LittleArsonist
Personal Assistant
 
Posts: 911
Joined: Wed Jan 14, 2004

Postby heppolo » Fri Jun 15, 2018 6:09 am

34 00 01 Chelsea Jade • Laugh It Off
Wow, this song is blowing up.
Waffles are checked cookies
User avatar
heppolo
Legend
 
Posts: 19907
Joined: Sun May 17, 2009
Location: interchangeable

Postby LittleArsonist » Sat Jun 16, 2018 3:48 pm

heppolo wrote:34 00 01 Chelsea Jade • Laugh It Off
Wow, this song is blowing up.
she really should decide to release a full length album !
User avatar
LittleArsonist
Personal Assistant
 
Posts: 911
Joined: Wed Jan 14, 2004

Postby heppolo » Sat Jun 16, 2018 5:02 pm

LittleArsonist wrote:
heppolo wrote:34 00 01 Chelsea Jade • Laugh It Off
Wow, this song is blowing up.
she really should decide to release a full length album !
I think she has released enough singles to do so.
Waffles are checked cookies
User avatar
heppolo
Legend
 
Posts: 19907
Joined: Sun May 17, 2009
Location: interchangeable

Return to Personal Charts