50:иgѕ w/e November 19 - new heights

Moderators: tdc2000, FreakyFlyBry

 

Postby LittleArsonist » Fri Mar 31, 2017 10:09 am

cover
[TW] (WI)
artist
track title
[chartrun]
---------------------------------------------------------------------------------------------------------
50:иgѕ (13/52) - week ending April 2
---------------------------------------------------------------------------------------------------------

---------------------------------------------------------------------------------------------------------
Image Image
01 01 11KaleoWay Down We Go
[33-22-19-12-7-9-12-14-18-1-1]
---------------------------------------------------------------------------------------------------------
Image Image
02 04 06SiaHelium
[1-1-2-5-4-2]
---------------------------------------------------------------------------------------------------------
Image Image
03 03 05LordeGreen Light
[2-1-4-3-3]
---------------------------------------------------------------------------------------------------------
Image Image
04 02 05Bruno MarsThat's What I Like
[27-22-3-2-4]
---------------------------------------------------------------------------------------------------------
Image Image
05 11 05The WeekndReminder
[47-38-11-11-5]
---------------------------------------------------------------------------------------------------------
Image Image
06 10 06Kings Of LeonReverend
[41-37-24-20-10-6]
---------------------------------------------------------------------------------------------------------
Image Image
07 05 08London GrammarBig Picture
[8-4-6-7-7-9-5-7]
---------------------------------------------------------------------------------------------------------
Image Image
08 08 07Depeche ModeWhere's The Revolution
[20-18-23-25-29-8-8]
---------------------------------------------------------------------------------------------------------
Image Image
09 06 07ElbowMagnificent (She Says)
[10-8-6-6-8-6-9]
---------------------------------------------------------------------------------------------------------
Image Image
10 30 05Calvin HarrisSlide (Featuring Frank Ocean & Migos)
[50-48-44-30-10]
---------------------------------------------------------------------------------------------------------
Image Image
11 07 12Ed SheeranShape Of You
[5-4-4-3-5-11-12-21-3-1-7-11]
---------------------------------------------------------------------------------------------------------
Image Image
12 12 05ColdplayHypnotised
[3-4-7-12-12]
---------------------------------------------------------------------------------------------------------
Image Image
13 19 04KhalidLocation
[44-32-19-13]
---------------------------------------------------------------------------------------------------------
Image Image
14 09 12Ed SheeranCastle On The Hill
[2-2-2-2-3-6-10-16-13-2-9-14]
---------------------------------------------------------------------------------------------------------
Image Image
15 13 08Rag'n'Bone ManSkin
[36-30-19-14-9-12-13-15]
---------------------------------------------------------------------------------------------------------
Image Image
16 16 07Katy PerryChained To The Rhythm (Featuring Skip Marley)
[1-2-5-8-13-16-16]
---------------------------------------------------------------------------------------------------------
Image Image
17 28 02OneRepublicLet's Hurt Tonight
[28-17]
---------------------------------------------------------------------------------------------------------
Image Image
18 14 06Lana Del ReyLove
[3-4-5-10-14-18]
---------------------------------------------------------------------------------------------------------
Image Image
19 17 11Biffy ClyroRe-Arrange
[48-35-31-18-13-14-13-16-17-17-19]
---------------------------------------------------------------------------------------------------------
Image Image
20 15 04Ed SheeranHow Would You Feel (Paean)
[50 // 6-15-20]
---------------------------------------------------------------------------------------------------------
Image Image
21 18 08Imagine DragonsBeliever
[16-14-17-11-11-15-18-21]
---------------------------------------------------------------------------------------------------------
Image Image
22 21 12David BowieNo Plan
[1-1-1-1-2-5-10-15-19-21-22]
---------------------------------------------------------------------------------------------------------
Image Image
23 23 13Kings Of LeonFind Me
[3-4-6-6-4-7-8-11-18-19-21-23-23]
---------------------------------------------------------------------------------------------------------
Image Image
24 24 05Ruth BSuperficial Love
[30-26-25-24-24]
---------------------------------------------------------------------------------------------------------
Image Image
25 20 11StarleyCall On Me
[36-32-13-4-3-4-8-10-16-20-25]
---------------------------------------------------------------------------------------------------------
Image Image
26 31 03KasabianYou're In Love With A Psycho
[50-31-26]
---------------------------------------------------------------------------------------------------------
Image Image
27 25 13London GrammarRooting For You
[25-20-10-8-6-6-9-15-19-21-23-25-27]
---------------------------------------------------------------------------------------------------------
Image Image
28 22 09GoldfrappAnymore
[33-26-22-13-9-12-14-22-28]
---------------------------------------------------------------------------------------------------------
Image Image
29 26 18RihannaLove On The Brain
[20-14-6-3-3-4-8-7-9-12-17-24-28-24-28-28-26-29]
---------------------------------------------------------------------------------------------------------
Image Image
30 36 07JamiroquaiCloud 9
[21-21-20-27-31-36-30]
---------------------------------------------------------------------------------------------------------
Image Image
31 34 05Robbie WilliamsMixed Signals
[36-32-30-34-31]
---------------------------------------------------------------------------------------------------------
Image Image
32 35 10Arcade FireI Give You Power (Featuring Mavis Staples)
[30-9-9-12-16-22-23-33-35-32]
---------------------------------------------------------------------------------------------------------
Image Image
33 33 05John MayerStill Feel Like Your Man
[40-36-34-33-33]
---------------------------------------------------------------------------------------------------------
Image Image
34 39 03First Aid KitYou Are The Problem Here
[49-39-34]
---------------------------------------------------------------------------------------------------------
Image Image
35 27 17SiaAngel By The Wings
[8-7-7-7-8-14-14-15-22-28-28-27-17-17-22-27-35]
---------------------------------------------------------------------------------------------------------
Image Image
36 29 08Lady GagaJohn Wayne
[41-36-33-32-29-26-29-36]
---------------------------------------------------------------------------------------------------------
Image Image
37 32 18Childish GambinoRedbone
[35-29-19-13-13-11-7-3-3-5-1-5-7-15-20-24-32-37]
---------------------------------------------------------------------------------------------------------
Image Image
38 42 03Frank OceanChanel
[48-42-38]
---------------------------------------------------------------------------------------------------------
Image Image
39 49 02Marian HillDown
[49-39]
---------------------------------------------------------------------------------------------------------
Image Image
40 40 04Jennifer HudsonRemember Me
[47-45-40-40]
---------------------------------------------------------------------------------------------------------
Image Image
41 00 01ElbowGentle Storm
[41]
---------------------------------------------------------------------------------------------------------
Image Image
42 38 04alt-J3WW
[40-37-38-42]
---------------------------------------------------------------------------------------------------------
Image Image
43 46 11BanksTrainwreck
[31-17-15-15-17-23-29-37-40-46-43]
---------------------------------------------------------------------------------------------------------
Image Image
44 37 04LordeLiability
[18-27-37-44]
---------------------------------------------------------------------------------------------------------
Image Image
45 48 02James BlakeMy Willing Heart
[48-45]
---------------------------------------------------------------------------------------------------------
Image Image
46 45 19The WeekndI Feel It Coming (Featuring Daft Punk)
[25-7-2-1-1-1-1-6-9-11-14-19-23-29-31-34-38-45-46]
---------------------------------------------------------------------------------------------------------
Image Image
47 50 02London GrammarTruth Is A Beautiful Thing
[50-47]
---------------------------------------------------------------------------------------------------------
Image Image
48 41 19John MayerLove On The Weekend
[11-4-5-5-6-6-5-10-13-7-8-13-15-20-28-31-35-41-48]
---------------------------------------------------------------------------------------------------------
Image Image
49 43 18Tove LoTrue Disaster
[41-36-32-19-19-9-9-12-10-11-14-19-26-33-39-42-43-49]
---------------------------------------------------------------------------------------------------------
Image Image
50 44 13Alessia CaraHow Far I'll Go
[40-27-20-14-10-10-18-24-26-30-36-44-50]
---------------------------------------------------------------------------------------------------------
OUT
---------------------------------------------------------------------------------------------------------
47 20Rag'n'Bone ManHuman
[42-32-20-10-3-2-2-2-2-3-5-5-7-11-16-22-25-33-39-47]
---------------------------------------------------------------------------------------------------------
User avatar
LittleArsonist
Personal Assistant
 
Posts: 845
Joined: Wed Jan 14, 2004

Postby heppolo » Fri Mar 31, 2017 2:03 pm

new Kasabian song is okay, but I've wanted more
Waffles are checked cookies
User avatar
heppolo
Legend
 
Posts: 13422
Joined: Sun May 17, 2009
Location: interchangeable

Postby LittleArsonist » Wed Apr 05, 2017 11:57 am

heppolo wrote:new Kasabian song is okay, but I've wanted more
same here, I must admit
User avatar
LittleArsonist
Personal Assistant
 
Posts: 845
Joined: Wed Jan 14, 2004

Postby LittleArsonist » Thu Apr 06, 2017 7:27 am

cover
[TW] (WI)
artist
track title
[chartrun]
---------------------------------------------------------------------------------------------------------
50:иgѕ (14/52) - week ending April 9
---------------------------------------------------------------------------------------------------------

---------------------------------------------------------------------------------------------------------
Image Image
01 01 12KaleoWay Down We Go
[33-22-19-12-7-9-12-14-18-1-1-1]
---------------------------------------------------------------------------------------------------------
Image Image
02 03 06LordeGreen Light
[2-1-4-3-3-2]
---------------------------------------------------------------------------------------------------------
Image Image
03 10 06Calvin HarrisSlide (Featuring Frank Ocean & Migos)
[50-48-44-30-10-3]
---------------------------------------------------------------------------------------------------------
Image Image
04 02 07SiaHelium
[1-1-2-5-4-2-4]
---------------------------------------------------------------------------------------------------------
Image Image
05 04 06Bruno MarsThat's What I Like
[27-22-3-2-4-5]
---------------------------------------------------------------------------------------------------------
Image Image
06 06 07Kings Of LeonReverend
[41-37-24-20-10-6-6]
---------------------------------------------------------------------------------------------------------
Image Image
07 05 06The WeekndReminder
[47-38-11-11-5-7]
---------------------------------------------------------------------------------------------------------
Image Image
08 13 05KhalidLocation
[44-32-19-13-8]
---------------------------------------------------------------------------------------------------------
Image Image
09 09 08ElbowMagnificent (She Says)
[10-8-6-6-8-6-9-9]
---------------------------------------------------------------------------------------------------------
Image Image
10 08 08Depeche ModeWhere's The Revolution
[20-18-23-25-29-8-8-10]
---------------------------------------------------------------------------------------------------------
Image Image
11 17 03OneRepublicLet's Hurt Tonight
[28-17-11]
---------------------------------------------------------------------------------------------------------
Image Image
12 07 09London GrammarBig Picture
[8-4-6-7-7-9-5-7-12]
---------------------------------------------------------------------------------------------------------
Image Image
13 18 07Lana Del ReyLove
[3-4-5-10-14-18-13]
---------------------------------------------------------------------------------------------------------
Image Image
14 12 06ColdplayHypnotised
[3-4-7-12-12-14]
---------------------------------------------------------------------------------------------------------
Image Image
15 11 13Ed SheeranShape Of You
[5-4-4-3-5-11-12-21-3-1-7-11-15]
---------------------------------------------------------------------------------------------------------
Image Image
16 19 12Biffy ClyroRe-Arrange
[48-35-31-18-13-14-13-16-17-17-19-16]
---------------------------------------------------------------------------------------------------------
Image Image
17 15 09Rag'n'Bone ManSkin
[36-30-19-14-9-12-13-15-17]
---------------------------------------------------------------------------------------------------------
Image Image
18 25 12StarleyCall On Me
[36-32-13-4-3-4-8-10-16-20-25-18]
---------------------------------------------------------------------------------------------------------
Image Image
19 16 08Katy PerryChained To The Rhythm (Featuring Skip Marley)
[1-2-5-8-13-16-16-19]
---------------------------------------------------------------------------------------------------------
Image Image
20 14 13Ed SheeranCastle On The Hill
[2-2-2-2-3-6-10-16-13-2-9-14-20]
---------------------------------------------------------------------------------------------------------
Image Image
21 24 06Ruth BSuperficial Love
[30-26-25-24-24-21]
---------------------------------------------------------------------------------------------------------
Image Image
22 22 13David BowieNo Plan
[1-1-1-1-2-5-10-15-19-21-22-22]
---------------------------------------------------------------------------------------------------------
Image Image
23 21 09Imagine DragonsBeliever
[16-14-17-11-11-15-18-21-23]
---------------------------------------------------------------------------------------------------------
Image Image
24 20 05Ed SheeranHow Would You Feel (Paean)
[50 // 6-15-20-24]
---------------------------------------------------------------------------------------------------------
Image Image
25 39 03Marian HillDown
[49-39-25]
---------------------------------------------------------------------------------------------------------
Image Image
26 23 14Kings Of LeonFind Me
[3-4-6-6-4-7-8-11-18-19-21-23-23-26]
---------------------------------------------------------------------------------------------------------
Image Image
27 34 04First Aid KitYou Are The Problem Here
[49-39-34-27]
---------------------------------------------------------------------------------------------------------
Image Image
28 28 10GoldfrappAnymore
[33-26-22-13-9-12-14-22-28-28]
---------------------------------------------------------------------------------------------------------
Image Image
29 33 06John MayerStill Feel Like Your Man
[40-36-34-33-33-29]
---------------------------------------------------------------------------------------------------------
Image Image
30 26 04KasabianYou're In Love With A Psycho
[50-31-26-30]
---------------------------------------------------------------------------------------------------------
Image Image
31 31 06Robbie WilliamsMixed Signals
[36-32-30-34-31-31]
---------------------------------------------------------------------------------------------------------
Image Image
32 41 02ElbowGentle Storm
[41-32]
---------------------------------------------------------------------------------------------------------
Image Image
33 27 14London GrammarRooting For You
[25-20-10-8-6-6-9-15-19-21-23-25-27-33]
---------------------------------------------------------------------------------------------------------
Image Image
34 30 08JamiroquaiCloud 9
[21-21-20-27-31-36-30-34]
---------------------------------------------------------------------------------------------------------
Image Image
35 45 03James BlakeMy Willing Heart
[48-45-35]
---------------------------------------------------------------------------------------------------------
Image Image
36 32 11Arcade FireI Give You Power (Featuring Mavis Staples)
[30-9-9-12-16-22-23-33-35-32-36]
---------------------------------------------------------------------------------------------------------
Image Image
37 38 04Frank OceanChanel
[48-42-38-37]
---------------------------------------------------------------------------------------------------------
Image Image
38 40 05Jennifer HudsonRemember Me
[47-45-40-40-38]
---------------------------------------------------------------------------------------------------------
Image Image
39 29 19RihannaLove On The Brain
[20-14-6-3-3-4-8-7-9-12-17-24-28-24-28-28-26-29-39]
---------------------------------------------------------------------------------------------------------
Image Image
40 35 18SiaAngel By The Wings
[8-7-7-7-8-14-14-15-22-28-28-27-17-17-22-27-35-40]
---------------------------------------------------------------------------------------------------------
Image Image
41 44 05LordeLiability
[18-27-37-44-41]
---------------------------------------------------------------------------------------------------------
Image Image
42 36 09Lady GagaJohn Wayne
[41-36-33-32-29-26-29-36-42]
---------------------------------------------------------------------------------------------------------
Image Image
43 42 05alt-J3WW
[40-37-38-42-43]
---------------------------------------------------------------------------------------------------------
Image Image
44 47 03London GrammarTruth Is A Beautiful Thing
[50-47-44]
---------------------------------------------------------------------------------------------------------
Image Image
45 37 19Childish GambinoRedbone
[35-29-19-13-13-11-7-3-3-5-1-5-7-15-20-24-32-37-45]
---------------------------------------------------------------------------------------------------------
Image Image
46 43 12BanksTrainwreck
[31-17-15-15-17-23-29-37-40-46-43-46]
---------------------------------------------------------------------------------------------------------
Image Image
47 46 20The WeekndI Feel It Coming (Featuring Daft Punk)
[25-7-2-1-1-1-1-6-9-11-14-19-23-29-31-34-38-45-46-47]
---------------------------------------------------------------------------------------------------------
Image Image
48 00 01Kendrick LamarHUMBLE.
[48]
---------------------------------------------------------------------------------------------------------
Image Image
49 00 01The KooksBe Who You Are
[49]
---------------------------------------------------------------------------------------------------------
Image Image
50 00 01Calvin HarrisHeatstroke (Featuring Young Thug, Pharrell Williams & Ariana Grande)
[50]
---------------------------------------------------------------------------------------------------------
OUT
---------------------------------------------------------------------------------------------------------
48 19John MayerLove On The Weekend
[11-4-5-5-6-6-5-10-13-7-8-13-15-20-28-31-35-41-48]
---------------------------------------------------------------------------------------------------------
49 18Tove LoTrue Disaster
[41-36-32-19-19-9-9-12-10-11-14-19-26-33-39-42-43-49]
---------------------------------------------------------------------------------------------------------
50 13Alessia CaraHow Far I'll Go
[40-27-20-14-10-10-18-24-26-30-36-44-50]
---------------------------------------------------------------------------------------------------------
User avatar
LittleArsonist
Personal Assistant
 
Posts: 845
Joined: Wed Jan 14, 2004

Postby heppolo » Thu Apr 06, 2017 10:32 am

49 00 01 • The Kooks • Be Who You Are
I am surprised they are still trying.
The song is alright nevertheless
Waffles are checked cookies
User avatar
heppolo
Legend
 
Posts: 13422
Joined: Sun May 17, 2009
Location: interchangeable

Postby LittleArsonist » Fri Apr 14, 2017 3:18 pm

heppolo wrote:
49 00 01 • The Kooks • Be Who You Are
I am surprised they are still trying.
The song is alright nevertheless
yup it's their usual sound but still better than most of their latest attempts
User avatar
LittleArsonist
Personal Assistant
 
Posts: 845
Joined: Wed Jan 14, 2004

Postby LittleArsonist » Fri Apr 14, 2017 4:11 pm

cover
[TW] (WI)
artist
track title
[chartrun]
---------------------------------------------------------------------------------------------------------
50:иgѕ (15/52) - week ending April 16
---------------------------------------------------------------------------------------------------------

---------------------------------------------------------------------------------------------------------
Image Image
01 02 07LordeGreen Light
[2-1-4-3-3-2-1]
---------------------------------------------------------------------------------------------------------
Image Image
02 01 13KaleoWay Down We Go
[33-22-19-12-7-9-12-14-18-1-1-1-2]
---------------------------------------------------------------------------------------------------------
Image Image
03 03 07Calvin HarrisSlide (Featuring Frank Ocean & Migos)
[50-48-44-30-10-3-3]
---------------------------------------------------------------------------------------------------------
Image Image
04 05 07Bruno MarsThat's What I Like
[27-22-3-2-4-5-4]
---------------------------------------------------------------------------------------------------------
Image Image
05 06 08Kings Of LeonReverend
[41-37-24-20-10-6-6-5]
---------------------------------------------------------------------------------------------------------
Image Image
06 04 08SiaHelium
[1-1-2-5-4-2-4-6]
---------------------------------------------------------------------------------------------------------
Image Image
07 08 06KhalidLocation
[44-32-19-13-8-7]
---------------------------------------------------------------------------------------------------------
Image Image
08 11 04OneRepublicLet's Hurt Tonight
[28-17-11-8]
---------------------------------------------------------------------------------------------------------
Image Image
09 09 09ElbowMagnificent (She Says)
[10-8-6-6-8-6-9-9-9]
---------------------------------------------------------------------------------------------------------
Image Image
10 07 07The WeekndReminder
[47-38-11-11-5-7-10]
---------------------------------------------------------------------------------------------------------
Image Image
11 14 07ColdplayHypnotised
[3-4-7-12-12-14-11]
---------------------------------------------------------------------------------------------------------
Image Image
12 12 10London GrammarBig Picture
[8-4-6-7-7-9-5-7-12-12]
---------------------------------------------------------------------------------------------------------
Image Image
13 13 08Lana Del ReyLove
[3-4-5-10-14-18-13-13]
---------------------------------------------------------------------------------------------------------
Image Image
14 10 09Depeche ModeWhere's The Revolution
[20-18-23-25-29-8-8-10-14]
---------------------------------------------------------------------------------------------------------
Image Image
15 27 05First Aid KitYou Are The Problem Here
[49-39-34-27-15]
---------------------------------------------------------------------------------------------------------
Image Image
16 15 14Ed SheeranShape Of You
[5-4-4-3-5-11-12-21-3-1-7-11-15-16]
---------------------------------------------------------------------------------------------------------
Image Image
17 25 04Marian HillDown
[49-39-25-17]
---------------------------------------------------------------------------------------------------------
Image Image
18 16 13Biffy ClyroRe-Arrange
[48-35-31-18-13-14-13-16-17-17-19-16-18]
---------------------------------------------------------------------------------------------------------
Image Image
19 19 09Katy PerryChained To The Rhythm (Featuring Skip Marley)
[1-2-5-8-13-16-16-19-19]
---------------------------------------------------------------------------------------------------------
Image Image
20 17 10Rag'n'Bone ManSkin
[36-30-19-14-9-12-13-15-17-20]
---------------------------------------------------------------------------------------------------------
Image Image
21 18 13StarleyCall On Me
[36-32-13-4-3-4-8-10-16-20-25-18-21]
---------------------------------------------------------------------------------------------------------
Image Image
22 21 07Ruth BSuperficial Love
[30-26-25-24-24-21-22]
---------------------------------------------------------------------------------------------------------
Image Image
23 20 14Ed SheeranCastle On The Hill
[2-2-2-2-3-6-10-16-13-2-9-14-20-23]
---------------------------------------------------------------------------------------------------------
Image Image
24 32 03ElbowGentle Storm
[41-32-24]
---------------------------------------------------------------------------------------------------------
Image Image
25 23 10Imagine DragonsBeliever
[16-14-17-11-11-15-18-21-23-25]
---------------------------------------------------------------------------------------------------------
Image Image
26 29 07John MayerStill Feel Like Your Man
[40-36-34-33-33-29-26]
---------------------------------------------------------------------------------------------------------
Image Image
27 30 05KasabianYou're In Love With A Psycho
[50-31-26-30-27]
---------------------------------------------------------------------------------------------------------
Image Image
28 22 14David BowieNo Plan
[1-1-1-1-2-5-10-15-19-21-22-22-28]
---------------------------------------------------------------------------------------------------------
Image Image
29 26 15Kings Of LeonFind Me
[3-4-6-6-4-7-8-11-18-19-21-23-23-26-29]
---------------------------------------------------------------------------------------------------------
Image Image
30 35 04James BlakeMy Willing Heart
[48-45-35-30]
---------------------------------------------------------------------------------------------------------
Image Image
31 24 06Ed SheeranHow Would You Feel (Paean)
[50 // 6-15-20-24-31]
---------------------------------------------------------------------------------------------------------
Image Image
32 28 11GoldfrappAnymore
[33-26-22-13-9-12-14-22-28-28-32]
---------------------------------------------------------------------------------------------------------
Image Image
33 33 15London GrammarRooting For You
[25-20-10-8-6-6-9-15-19-21-23-25-27-33-33]
---------------------------------------------------------------------------------------------------------
Image Image
34 37 05Frank OceanChanel
[48-42-38-37-34]
---------------------------------------------------------------------------------------------------------
Image Image
35 31 07Robbie WilliamsMixed Signals
[36-32-30-34-31-31-35]
---------------------------------------------------------------------------------------------------------
Image Image
36 38 06Jennifer HudsonRemember Me
[47-45-40-40-38-36]
---------------------------------------------------------------------------------------------------------
Image Image
37 34 09JamiroquaiCloud 9
[21-21-20-27-31-36-30-34-37]
---------------------------------------------------------------------------------------------------------
Image Image
38 44 04London GrammarTruth Is A Beautiful Thing
[50-47-44-38]
---------------------------------------------------------------------------------------------------------
Image Image
39 41 06LordeLiability
[18-27-37-44-41-39]
---------------------------------------------------------------------------------------------------------
Image Image
40 50 02Calvin HarrisHeatstroke (Featuring Young Thug, Pharrell Williams & Ariana Grande)
[50-40]
---------------------------------------------------------------------------------------------------------
Image Image
41 36 12Arcade FireI Give You Power (Featuring Mavis Staples)
[30-9-9-12-16-22-23-33-35-32-36-41]
---------------------------------------------------------------------------------------------------------
Image Image
42 48 02Kendrick LamarHUMBLE.
[48-42]
---------------------------------------------------------------------------------------------------------
Image Image
43 43 06alt-J3WW
[40-37-38-42-43-43]
---------------------------------------------------------------------------------------------------------
Image Image
44 39 20RihannaLove On The Brain
[20-14-6-3-3-4-8-7-9-12-17-24-28-24-28-28-26-29-39-44]
---------------------------------------------------------------------------------------------------------
Image Image
45 00 01BeyoncéDie With You
[45]
---------------------------------------------------------------------------------------------------------
Image Image
46 00 01BanksCrowded Places
[46]
---------------------------------------------------------------------------------------------------------
Image Image
47 49 02The KooksBe Who You Are
[49-47]
---------------------------------------------------------------------------------------------------------
Image Image
48 40 19SiaAngel By The Wings
[8-7-7-7-8-14-14-15-22-28-28-27-17-17-22-27-35-40-48]
---------------------------------------------------------------------------------------------------------
Image Image
49 42 10Lady GagaJohn Wayne
[41-36-33-32-29-26-29-36-42-49]
---------------------------------------------------------------------------------------------------------
Image Image
50 45 20Childish GambinoRedbone
[35-29-19-13-13-11-7-3-3-5-1-5-7-15-20-24-32-37-45-50]
---------------------------------------------------------------------------------------------------------
OUT
---------------------------------------------------------------------------------------------------------
46 12BanksTrainwreck
[31-17-15-15-17-23-29-37-40-46-43-46]
---------------------------------------------------------------------------------------------------------
47 20The WeekndI Feel It Coming (Featuring Daft Punk)
[25-7-2-1-1-1-1-6-9-11-14-19-23-29-31-34-38-45-46-47]
---------------------------------------------------------------------------------------------------------
User avatar
LittleArsonist
Personal Assistant
 
Posts: 845
Joined: Wed Jan 14, 2004

Postby heppolo » Fri Apr 14, 2017 7:52 pm

30 35 04 • James Blake • My Willing Heart
Great to see this one rising
Waffles are checked cookies
User avatar
heppolo
Legend
 
Posts: 13422
Joined: Sun May 17, 2009
Location: interchangeable

Postby LittleArsonist » Fri Apr 21, 2017 9:24 am

heppolo wrote:
30 35 04 • James Blake • My Willing Heart
Great to see this one rising
it is really good... grew slower on me compared to his previous songs :)
User avatar
LittleArsonist
Personal Assistant
 
Posts: 845
Joined: Wed Jan 14, 2004

Postby LittleArsonist » Sat Apr 22, 2017 8:28 am

cover
[TW] (WI)
artist
track title
[chartrun]
---------------------------------------------------------------------------------------------------------
50:иgѕ (16/52) - week ending April 23
---------------------------------------------------------------------------------------------------------

---------------------------------------------------------------------------------------------------------
Image Image
01 03 08Calvin HarrisSlide (Featuring Frank Ocean & Migos)
[50-48-44-30-10-3-3-1]
---------------------------------------------------------------------------------------------------------
Image Image
02 01 08LordeGreen Light
[2-1-4-3-3-2-1-2]
---------------------------------------------------------------------------------------------------------
Image Image
03 02 14KaleoWay Down We Go
[33-22-19-12-7-9-12-14-18-1-1-1-2-3]
---------------------------------------------------------------------------------------------------------
Image Image
04 04 08Bruno MarsThat's What I Like
[27-22-3-2-4-5-4]
---------------------------------------------------------------------------------------------------------
Image Image
05 07 07KhalidLocation
[44-32-19-13-8-7-5]
---------------------------------------------------------------------------------------------------------
Image Image
06 05 09Kings Of LeonReverend
[41-37-24-20-10-6-6-5-6]
---------------------------------------------------------------------------------------------------------
Image Image
07 08 05OneRepublicLet's Hurt Tonight
[28-17-11-8-7]
---------------------------------------------------------------------------------------------------------
Image Image
08 06 09SiaHelium
[1-1-2-5-4-2-4-6-8]
---------------------------------------------------------------------------------------------------------
Image Image
09 15 06First Aid KitYou Are The Problem Here
[49-39-34-27-15-9]
---------------------------------------------------------------------------------------------------------
Image Image
10 10 08The WeekndReminder
[47-38-11-11-5-7-10-10]
---------------------------------------------------------------------------------------------------------
Image Image
11 09 10ElbowMagnificent (She Says)
[10-8-6-6-8-6-9-9-9-11]
---------------------------------------------------------------------------------------------------------
Image Image
12 11 08ColdplayHypnotised
[3-4-7-12-12-14-11-12]
---------------------------------------------------------------------------------------------------------
Image Image
13 17 05Marian HillDown
[49-39-25-17-13]
---------------------------------------------------------------------------------------------------------
Image Image
14 12 11London GrammarBig Picture
[8-4-6-7-7-9-5-7-12-12-14]
---------------------------------------------------------------------------------------------------------
Image Image
15 24 04ElbowGentle Storm
[41-32-24-15]
---------------------------------------------------------------------------------------------------------
Image Image
16 13 09Lana Del ReyLove
[3-4-5-10-14-18-13-13-16]
---------------------------------------------------------------------------------------------------------
Image Image
17 20 11Rag'n'Bone ManSkin
[36-30-19-14-9-12-13-15-17-20-17]
---------------------------------------------------------------------------------------------------------
Image Image
18 14 10Depeche ModeWhere's The Revolution
[20-18-23-25-29-8-8-10-14-18]
---------------------------------------------------------------------------------------------------------
Image Image
19 30 05James BlakeMy Willing Heart
[48-45-35-30-19]
---------------------------------------------------------------------------------------------------------
Image Image
20 16 15Ed SheeranShape Of You
[5-4-4-3-5-11-12-21-3-1-7-11-15-16-20]
---------------------------------------------------------------------------------------------------------
Image Image
21 22 08Ruth BSuperficial Love
[30-26-25-24-24-21-22-21]
---------------------------------------------------------------------------------------------------------
Image Image
22 18 14Biffy ClyroRe-Arrange
[48-35-31-18-13-14-13-16-17-17-19-16-18-22]
---------------------------------------------------------------------------------------------------------
Image Image
23 19 10Katy PerryChained To The Rhythm (Featuring Skip Marley)
[1-2-5-8-13-16-16-19-19-23]
---------------------------------------------------------------------------------------------------------
Image Image
24 26 08John MayerStill Feel Like Your Man
[40-36-34-33-33-29-26-24]
---------------------------------------------------------------------------------------------------------
Image Image
25 25 11Imagine DragonsBeliever
[16-14-17-11-11-15-18-21-23-25-25]
---------------------------------------------------------------------------------------------------------
Image Image
26 27 06KasabianYou're In Love With A Psycho
[50-31-26-30-27-26]
---------------------------------------------------------------------------------------------------------
Image Image
27 21 14StarleyCall On Me
[36-32-13-4-3-4-8-10-16-20-25-18-21]
---------------------------------------------------------------------------------------------------------
Image Image
28 23 15Ed SheeranCastle On The Hill
[2-2-2-2-3-6-10-16-13-2-9-14-20-23-28]
---------------------------------------------------------------------------------------------------------
Image Image
29 29 16Kings Of LeonFind Me
[3-4-6-6-4-7-8-11-18-19-21-23-23-26-29-29]
---------------------------------------------------------------------------------------------------------
Image Image
30 36 07Jennifer HudsonRemember Me
[47-45-40-40-38-36-30]
---------------------------------------------------------------------------------------------------------
Image Image
31 40 03Calvin HarrisHeatstroke (Featuring Young Thug, Pharrell Williams & Ariana Grande)
[50-40-31]
---------------------------------------------------------------------------------------------------------
Image Image
32 28 15David BowieNo Plan
[1-1-1-1-2-5-10-15-19-21-22-22-28-32]
---------------------------------------------------------------------------------------------------------
Image Image
33 39 07LordeLiability
[18-27-37-44-41-39-33]
---------------------------------------------------------------------------------------------------------
Image Image
34 42 03Kendrick LamarHUMBLE.
[48-42-34]
---------------------------------------------------------------------------------------------------------
Image Image
35 32 12GoldfrappAnymore
[33-26-22-13-9-12-14-22-28-28-32-35]
---------------------------------------------------------------------------------------------------------
Image Image
36 33 16London GrammarRooting For You
[25-20-10-8-6-6-9-15-19-21-23-25-27-33-33-36]
---------------------------------------------------------------------------------------------------------
Image Image
37 31 07Ed SheeranHow Would You Feel (Paean)
[50 // 6-15-20-24-31-37]
---------------------------------------------------------------------------------------------------------
Image Image
38 00 01Lana Del ReyLust For Life (Featuring The Weeknd)
[38]
---------------------------------------------------------------------------------------------------------
Image Image
39 38 05London GrammarTruth Is A Beautiful Thing
[50-47-44-38-39]
---------------------------------------------------------------------------------------------------------
Image Image
40 00 01Lady GagaThe Cure
[40]
---------------------------------------------------------------------------------------------------------
Image Image
41 34 06Frank OceanChanel
[48-42-38-37-34-41]
---------------------------------------------------------------------------------------------------------
Image Image
42 41 13Arcade FireI Give You Power (Featuring Mavis Staples)
[30-9-9-12-16-22-23-33-35-32-36-41-42]
---------------------------------------------------------------------------------------------------------
Image Image
43 37 10JamiroquaiCloud 9
[21-21-20-27-31-36-30-34-37-43]
---------------------------------------------------------------------------------------------------------
Image Image
44 43 07alt-J3WW
[40-37-38-42-43-43-44]
---------------------------------------------------------------------------------------------------------
Image Image
45 46 02BanksCrowded Places
[46-45]
---------------------------------------------------------------------------------------------------------
Image Image
46 45 02BeyoncéDie With You
[45-46]
---------------------------------------------------------------------------------------------------------
Image Image
47 35 08Robbie WilliamsMixed Signals
[36-32-30-34-31-31-35-47]
---------------------------------------------------------------------------------------------------------
Image Image
48 47 03The KooksBe Who You Are
[49-47-48]
---------------------------------------------------------------------------------------------------------
Image Image
49 49 11Lady GagaJohn Wayne
[41-36-33-32-29-26-29-36-42-49-49]
---------------------------------------------------------------------------------------------------------
Image Image
50 48 20SiaAngel By The Wings
[8-7-7-7-8-14-14-15-22-28-28-27-17-17-22-27-35-40-48-50]
---------------------------------------------------------------------------------------------------------
OUT
---------------------------------------------------------------------------------------------------------
44 20RihannaLove On The Brain
[20-14-6-3-3-4-8-7-9-12-17-24-28-24-28-28-26-29-39-44]
---------------------------------------------------------------------------------------------------------
50 20Childish GambinoRedbone
[35-29-19-13-13-11-7-3-3-5-1-5-7-15-20-24-32-37-45-50]
---------------------------------------------------------------------------------------------------------
User avatar
LittleArsonist
Personal Assistant
 
Posts: 845
Joined: Wed Jan 14, 2004

Postby LittleArsonist » Fri Apr 28, 2017 4:01 pm

cover
[TW] (WI)
artist
track title
[chartrun]
---------------------------------------------------------------------------------------------------------
50:иgѕ (17/52) - week ending April 30
---------------------------------------------------------------------------------------------------------

---------------------------------------------------------------------------------------------------------
Image Image
01 00 01Royal BloodLights Out
[1]
---------------------------------------------------------------------------------------------------------
Image Image
02 01 09Calvin HarrisSlide (Featuring Frank Ocean & Migos)
[50-48-44-30-10-3-3-1-2]
---------------------------------------------------------------------------------------------------------
Image Image
03 05 08KhalidLocation
[44-32-19-13-8-7-5-3]
---------------------------------------------------------------------------------------------------------
Image Image
04 02 09LordeGreen Light
[2-1-4-3-3-2-1-2-4]
---------------------------------------------------------------------------------------------------------
Image Image
05 03 15KaleoWay Down We Go
[33-22-19-12-7-9-12-14-18-1-1-1-2-3-5]
---------------------------------------------------------------------------------------------------------
Image Image
06 09 07First Aid KitYou Are The Problem Here
[49-39-34-27-15-9-6]
---------------------------------------------------------------------------------------------------------
Image Image
07 06 10Kings Of LeonReverend
[41-37-24-20-10-6-6-5-6-7]
---------------------------------------------------------------------------------------------------------
Image Image
08 04 09Bruno MarsThat's What I Like
[27-22-3-2-4-5-4-4-8]
---------------------------------------------------------------------------------------------------------
Image Image
09 07 06OneRepublicLet's Hurt Tonight
[28-17-11-8-7-9]
---------------------------------------------------------------------------------------------------------
Image Image
10 08 10SiaHelium
[1-1-2-5-4-2-4-6-8-10]
---------------------------------------------------------------------------------------------------------
Image Image
11 13 06Marian HillDown
[49-39-25-17-13-11]
---------------------------------------------------------------------------------------------------------
Image Image
12 15 05ElbowGentle Storm
[41-32-24-15-12]
---------------------------------------------------------------------------------------------------------
Image Image
13 11 11ElbowMagnificent (She Says)
[10-8-6-6-8-6-9-9-9-11-13]
---------------------------------------------------------------------------------------------------------
Image Image
14 10 09The WeekndReminder
[47-38-11-11-5-7-10-10-14]
---------------------------------------------------------------------------------------------------------
Image Image
15 12 09ColdplayHypnotised
[3-4-7-12-12-14-11-12-15]
---------------------------------------------------------------------------------------------------------
Image Image
16 19 06James BlakeMy Willing Heart
[48-45-35-30-19-16]
---------------------------------------------------------------------------------------------------------
Image Image
17 17 12Rag'n'Bone ManSkin
[36-30-19-14-9-12-13-15-17-20-17-17]
---------------------------------------------------------------------------------------------------------
Image Image
18 14 12London GrammarBig Picture
[8-4-6-7-7-9-5-7-12-12-14-18]
---------------------------------------------------------------------------------------------------------
Image Image
19 16 10Lana Del ReyLove
[3-4-5-10-14-18-13-13-16-19]
---------------------------------------------------------------------------------------------------------
Image Image
20 34 04Kendrick LamarHUMBLE.
[48-42-34-20]
---------------------------------------------------------------------------------------------------------
Image Image
21 21 09Ruth BSuperficial Love
[30-26-25-24-24-21-22-21-21]
---------------------------------------------------------------------------------------------------------
Image Image
22 24 09John MayerStill Feel Like Your Man
[40-36-34-33-33-29-26-24-22]
---------------------------------------------------------------------------------------------------------
Image Image
23 25 12Imagine DragonsBeliever
[16-14-17-11-11-15-18-21-23-25-25-23]
---------------------------------------------------------------------------------------------------------
Image Image
24 18 11Depeche ModeWhere's The Revolution
[20-18-23-25-29-8-8-10-14-18-24]
---------------------------------------------------------------------------------------------------------
Image Image
25 22 15Biffy ClyroRe-Arrange
[48-35-31-18-13-14-13-16-17-17-19-16-18-22-25]
---------------------------------------------------------------------------------------------------------
Image Image
26 30 08Jennifer HudsonRemember Me
[47-45-40-40-38-36-30-26]
---------------------------------------------------------------------------------------------------------
Image Image
27 00 01London GrammarOh Woman Oh Man
[27]
---------------------------------------------------------------------------------------------------------
Image Image
28 31 04Calvin HarrisHeatstroke (Featuring Young Thug, Pharrell Williams & Ariana Grande)
[50-40-31-28]
---------------------------------------------------------------------------------------------------------
Image Image
29 23 11Katy PerryChained To The Rhythm (Featuring Skip Marley)
[1-2-5-8-13-16-16-19-19-23-29]
---------------------------------------------------------------------------------------------------------
Image Image
30 38 02Lana Del ReyLust For Life (Featuring The Weeknd)
[38-30]
---------------------------------------------------------------------------------------------------------
Image Image
31 00 01KasabianAre You Looking For Action?
[31]
---------------------------------------------------------------------------------------------------------
Image Image
32 20 16Ed SheeranShape Of You
[5-4-4-3-5-11-12-21-3-1-7-11-15-16-20-32]
---------------------------------------------------------------------------------------------------------
Image Image
33 26 07KasabianYou're In Love With A Psycho
[50-31-26-30-27-26-33]
---------------------------------------------------------------------------------------------------------
Image Image
34 40 02Lady GagaThe Cure
[40-34]
---------------------------------------------------------------------------------------------------------
Image Image
35 27 15StarleyCall On Me
[36-32-13-4-3-4-8-10-16-20-25-18-21-27-35]
---------------------------------------------------------------------------------------------------------
Image Image
36 00 01TexasLet's Work It Out
[36]
---------------------------------------------------------------------------------------------------------
Image Image
37 28 16Ed SheeranCastle On The Hill
[2-2-2-2-3-6-10-16-13-2-9-14-20-23-28-37]
---------------------------------------------------------------------------------------------------------
Image Image
38 39 06London GrammarTruth Is A Beautiful Thing
[50-47-44-38-39-38]
---------------------------------------------------------------------------------------------------------
Image Image
39 45 03BanksCrowded Places
[46-45-39]
---------------------------------------------------------------------------------------------------------
Image Image
40 29 17Kings Of LeonFind Me
[3-4-6-6-4-7-8-11-18-19-21-23-23-26-29-29-40]
---------------------------------------------------------------------------------------------------------
Image Image
41 32 16David BowieNo Plan
[1-1-1-1-2-5-10-15-19-21-22-22-28-32-41]
---------------------------------------------------------------------------------------------------------
Image Image
42 00 01Alessia CaraThe Other Side
[42]
---------------------------------------------------------------------------------------------------------
Image Image
43 33 08LordeLiability
[18-27-37-44-41-39-33-43]
---------------------------------------------------------------------------------------------------------
Image Image
44 36 17London GrammarRooting For You
[25-20-10-8-6-6-9-15-19-21-23-25-27-33-33-36-44]
---------------------------------------------------------------------------------------------------------
Image Image
45 00 01IncubusNimble Bastard
[45]
---------------------------------------------------------------------------------------------------------
Image Image
46 35 13GoldfrappAnymore
[33-26-22-13-9-12-14-22-28-28-32-35-46]
---------------------------------------------------------------------------------------------------------
Image Image
47 41 07Frank OceanChanel
[48-42-38-37-34-41-47]
---------------------------------------------------------------------------------------------------------
Image Image
48 37 08Ed SheeranHow Would You Feel (Paean)
[50 // 6-15-20-24-31-37-48]
---------------------------------------------------------------------------------------------------------
Image Image
49 42 14Arcade FireI Give You Power (Featuring Mavis Staples)
[30-9-9-12-16-22-23-33-35-32-36-41-42-49]
---------------------------------------------------------------------------------------------------------
Image Image
50 00 01Sheryl CrowHalfway There
[50]
---------------------------------------------------------------------------------------------------------
OUT
---------------------------------------------------------------------------------------------------------
43 10JamiroquaiCloud 9
[21-21-20-27-31-36-30-34-37-43]
---------------------------------------------------------------------------------------------------------
44 07alt-J3WW
[40-37-38-42-43-43-44]
---------------------------------------------------------------------------------------------------------
46 02BeyoncéDie With You
[45-46]
---------------------------------------------------------------------------------------------------------
47 08Robbie WilliamsMixed Signals
[36-32-30-34-31-31-35-47]
---------------------------------------------------------------------------------------------------------
48 03The KooksBe Who You Are
[49-47-48]
---------------------------------------------------------------------------------------------------------
49 11Lady GagaJohn Wayne
[41-36-33-32-29-26-29-36-42-49-49]
---------------------------------------------------------------------------------------------------------
50 20SiaAngel By The Wings
[8-7-7-7-8-14-14-15-22-28-28-27-17-17-22-27-35-40-48-50]
---------------------------------------------------------------------------------------------------------
User avatar
LittleArsonist
Personal Assistant
 
Posts: 845
Joined: Wed Jan 14, 2004

Postby heppolo » Fri Apr 28, 2017 4:49 pm

06 09 07 • First Aid Kit • You Are The Problem Here
Didn't expect to see this so high, great.
31 00 01 • Kasabian • Are You Looking For Action?
It is okay, but I am still on the fence about it
36 00 01 • Texas • Let's Work It Out
Great one! A rockier side of Texas.
45 00 01 • Incubus • Nimble Bastard
They're still good as ever.
Waffles are checked cookies
User avatar
heppolo
Legend
 
Posts: 13422
Joined: Sun May 17, 2009
Location: interchangeable

Postby JakeP » Sat Apr 29, 2017 10:36 am

Hi LittleArsonist :D

Here are my faves in your chart this week:

01 00 01 • Royal Blood • Lights Out

Ohh nice to see Royal Blood #1 here. Lights out made my top 20 last week albeit at...#20! :lol: But i am enjoying this song, and it keeps reminding me of Muse when i listen to this track.

02 01 09 • Calvin Harris • Slide (Featuring Frank Ocean & Migos)
04 02 09 • Lorde • Green Light
05 03 15 • Kaleo • Way Down We Go
07 06 10 • Kings Of Leon • Reverend
08 04 09 • Bruno Mars • That's What I Like
09 07 06 • OneRepublic • Let's Hurt Tonight
10 08 10 • Sia • Helium
15 12 09 • Coldplay • Hypnotised
17 17 12 • Rag'n'Bone Man • Skin
18 14 12 • London Grammar • Big Picture
19 16 10 • Lana Del Rey • Love
20 34 04 • Kendrick Lamar • HUMBLE.
23 25 12 • Imagine Dragons • Believer
27 00 01 • London Grammar • Oh Woman Oh Man
28 31 04 • Calvin Harris • Heatstroke (Featuring Young Thug, Pharrell Williams & Ariana Grande)
29 23 11 • Katy Perry • Chained To The Rhythm (Featuring Skip Marley)
30 38 02 • Lana Del Rey • Lust For Life (Featuring The Weeknd)
32 20 16 • Ed Sheeran • Shape Of You
34 40 02 • Lady Gaga • The Cure
35 27 15 • Starley • Call On Me
37 28 16 • Ed Sheeran • Castle On The Hill

38 39 06 • London Grammar • Truth Is A Beautiful Thing
40 29 17 • Kings Of Leon • Find Me
41 32 16 • David Bowie • No Plan
43 33 08 • Lorde • Liability
44 36 17 • London Grammar • Rooting For You
48 37 08 • Ed Sheeran • How Would You Feel (Paean)
User avatar
JakeP
Manager
 
Posts: 3155
Joined: Mon Aug 19, 2013

Postby LittleArsonist » Tue May 09, 2017 2:28 pm

heppolo wrote:
06 09 07 • First Aid Kit • You Are The Problem Here
Didn't expect to see this so high, great.
31 00 01 • Kasabian • Are You Looking For Action?
It is okay, but I am still on the fence about it
36 00 01 • Texas • Let's Work It Out
Great one! A rockier side of Texas.
45 00 01 • Incubus • Nimble Bastard
They're still good as ever.
Have you heard the whole Kasabian new album? I haven't yet but curious about it. Will do soon.

Texas and Incubus new albums are fantastic :)
User avatar
LittleArsonist
Personal Assistant
 
Posts: 845
Joined: Wed Jan 14, 2004

Postby LittleArsonist » Tue May 09, 2017 2:29 pm

JakeP wrote:Hi LittleArsonist :D

Here are my faves in your chart this week:

01 00 01 • Royal Blood • Lights Out

Ohh nice to see Royal Blood #1 here. Lights out made my top 20 last week albeit at...#20! :lol: But i am enjoying this song, and it keeps reminding me of Muse when i listen to this track.
thanks for checking :) love RB
User avatar
LittleArsonist
Personal Assistant
 
Posts: 845
Joined: Wed Jan 14, 2004

Postby LittleArsonist » Tue May 09, 2017 4:28 pm

a little later than usual........

cover
[TW] (WI)
artist
track title
[chartrun]
---------------------------------------------------------------------------------------------------------
50:иgѕ (18/52) - week ending May 7
---------------------------------------------------------------------------------------------------------

---------------------------------------------------------------------------------------------------------
Image Image
01 01 02Royal BloodLights Out
[1-1]
---------------------------------------------------------------------------------------------------------
Image Image
02 02 10Calvin HarrisSlide (Featuring Frank Ocean & Migos)
[50-48-44-30-10-3-3-1-2-2]
---------------------------------------------------------------------------------------------------------
Image Image
03 06 08First Aid KitYou Are The Problem Here
[49-39-34-27-15-9-6-3]
---------------------------------------------------------------------------------------------------------
Image Image
04 30 03Lana Del ReyLust For Life (Featuring The Weeknd)
[38-30-4]
---------------------------------------------------------------------------------------------------------
Image Image
05 03 09KhalidLocation
[44-32-19-13-8-7-5-3-5]
---------------------------------------------------------------------------------------------------------
Image Image
06 11 07Marian HillDown
[49-39-25-17-13-11-6]
---------------------------------------------------------------------------------------------------------
Image Image
07 07 11Kings Of LeonReverend
[41-37-24-20-10-6-6-5-6-7-7]
---------------------------------------------------------------------------------------------------------
Image Image
08 04 10LordeGreen Light
[2-1-4-3-3-2-1-2-4-8]
---------------------------------------------------------------------------------------------------------
Image Image
09 08 10Bruno MarsThat's What I Like
[27-22-3-2-4-5-4-4-8-9]
---------------------------------------------------------------------------------------------------------
Image Image
10 05 16KaleoWay Down We Go
[33-22-19-12-7-9-12-14-18-1-1-1-2-3-5-10]
---------------------------------------------------------------------------------------------------------
Image Image
11 09 07OneRepublicLet's Hurt Tonight
[28-17-11-8-7-9-11]
---------------------------------------------------------------------------------------------------------
Image Image
12 12 06ElbowGentle Storm
[41-32-24-15-12-12]
---------------------------------------------------------------------------------------------------------
Image Image
13 20 05Kendrick LamarHUMBLE.
[48-42-34-20-13]
---------------------------------------------------------------------------------------------------------
Image Image
14 10 11SiaHelium
[1-1-2-5-4-2-4-6-8-10-14]
---------------------------------------------------------------------------------------------------------
Image Image
15 16 07James BlakeMy Willing Heart
[48-45-35-30-19-16-15]
---------------------------------------------------------------------------------------------------------
Image Image
16 14 10The WeekndReminder
[47-38-11-11-5-7-10-10-14-16]
---------------------------------------------------------------------------------------------------------
Image Image
17 13 12ElbowMagnificent (She Says)
[10-8-6-6-8-6-9-9-9-11-13-17]
---------------------------------------------------------------------------------------------------------
Image Image
18 15 10ColdplayHypnotised
[3-4-7-12-12-14-11-12-15-18]
---------------------------------------------------------------------------------------------------------
Image Image
19 18 13London GrammarBig Picture
[8-4-6-7-7-9-5-7-12-12-14-18-19]
---------------------------------------------------------------------------------------------------------
Image Image
20 27 02London GrammarOh Woman Oh Man
[27-20]
---------------------------------------------------------------------------------------------------------
Image Image
21 19 11Lana Del ReyLove
[3-4-5-10-14-18-13-13-16-19-21]
---------------------------------------------------------------------------------------------------------
Image Image
22 17 13Rag'n'Bone ManSkin
[36-30-19-14-9-12-13-15-17-20-17-17-22]
---------------------------------------------------------------------------------------------------------
Image Image
23 22 10John MayerStill Feel Like Your Man
[40-36-34-33-33-29-26-24-22-23]
---------------------------------------------------------------------------------------------------------
Image Image
24 28 05Calvin HarrisHeatstroke (Featuring Young Thug, Pharrell Williams & Ariana Grande)
[50-40-31-28-24]
---------------------------------------------------------------------------------------------------------
Image Image
25 23 13Imagine DragonsBeliever
[16-14-17-11-11-15-18-21-23-25-25-23-25]
---------------------------------------------------------------------------------------------------------
Image Image
26 21 10Ruth BSuperficial Love
[30-26-25-24-24-21-22-21-21-26]
---------------------------------------------------------------------------------------------------------
Image Image
27 26 09Jennifer HudsonRemember Me
[47-45-40-40-38-36-30-26-27]
---------------------------------------------------------------------------------------------------------
Image Image
28 24 12Depeche ModeWhere's The Revolution
[20-18-23-25-29-8-8-10-14-18-24-28]
---------------------------------------------------------------------------------------------------------
Image Image
29 36 02TexasLet's Work It Out
[36-29]
---------------------------------------------------------------------------------------------------------
Image Image
30 25 16Biffy ClyroRe-Arrange
[48-35-31-18-13-14-13-16-17-17-19-16-18-22-25-30]
---------------------------------------------------------------------------------------------------------
Image Image
31 31 02KasabianAre You Looking For Action?
[31-31]
---------------------------------------------------------------------------------------------------------
Image Image
32 34 03Lady GagaThe Cure
[40-34-32]
---------------------------------------------------------------------------------------------------------
Image Image
33 39 04BanksCrowded Places
[46-45-39-33]
---------------------------------------------------------------------------------------------------------
Image Image
34 38 07London GrammarTruth Is A Beautiful Thing
[50-47-44-38-39-38-34]
---------------------------------------------------------------------------------------------------------
Image Image
35 29 12Katy PerryChained To The Rhythm (Featuring Skip Marley)
[1-2-5-8-13-16-16-19-19-23-29-35]
---------------------------------------------------------------------------------------------------------
Image Image
36 33 08KasabianYou're In Love With A Psycho
[50-31-26-30-27-26-33-36]
---------------------------------------------------------------------------------------------------------
Image Image
37 00 01X AmbassadorsTorches
[37]
---------------------------------------------------------------------------------------------------------
Image Image
38 32 17Ed SheeranShape Of You
[5-4-4-3-5-11-12-21-3-1-7-11-15-16-20-32-38]
---------------------------------------------------------------------------------------------------------
Image Image
39 42 02Alessia CaraThe Other Side
[42-39]
---------------------------------------------------------------------------------------------------------
Image Image
40 45 02IncubusNimble Bastard
[45-40]
---------------------------------------------------------------------------------------------------------
Image Image
41 35 16StarleyCall On Me
[36-32-13-4-3-4-8-10-16-20-25-18-21-27-35-41]
---------------------------------------------------------------------------------------------------------
Image Image
42 43 09LordeLiability
[18-27-37-44-41-39-33-43-42]
---------------------------------------------------------------------------------------------------------
Image Image
43 37 17Ed SheeranCastle On The Hill
[2-2-2-2-3-6-10-16-13-2-9-14-20-23-28-37-43]
---------------------------------------------------------------------------------------------------------
Image Image
44 40 18Kings Of LeonFind Me
[3-4-6-6-4-7-8-11-18-19-21-23-23-26-29-29-40-44]
---------------------------------------------------------------------------------------------------------
Image Image
45 50 02Sheryl CrowHalfway There
[50-45]
---------------------------------------------------------------------------------------------------------
Image Image
46 41 17David BowieNo Plan
[1-1-1-1-2-5-10-15-19-21-22-22-28-32-41-46]
---------------------------------------------------------------------------------------------------------
Image Image
47 44 18London GrammarRooting For You
[25-20-10-8-6-6-9-15-19-21-23-25-27-33-33-36-44-47]
---------------------------------------------------------------------------------------------------------
Image Image
48 00 01Ed SheeranGalway Girl
[48]
---------------------------------------------------------------------------------------------------------
Image Image
49 46 14GoldfrappAnymore
[33-26-22-13-9-12-14-22-28-28-32-35-46-49]
---------------------------------------------------------------------------------------------------------
Image Image
50 49 15Arcade FireI Give You Power (Featuring Mavis Staples)
[30-9-9-12-16-22-23-33-35-32-36-41-42-49-50]
---------------------------------------------------------------------------------------------------------
OUT
---------------------------------------------------------------------------------------------------------
47 07Frank OceanChanel
[48-42-38-37-34-41-47]
---------------------------------------------------------------------------------------------------------
48 08Ed SheeranHow Would You Feel (Paean)
[50 // 6-15-20-24-31-37-48]
---------------------------------------------------------------------------------------------------------
User avatar
LittleArsonist
Personal Assistant
 
Posts: 845
Joined: Wed Jan 14, 2004

Postby heppolo » Tue May 09, 2017 5:01 pm

37 00 01 • X Ambassadors • Torches
A fine new entry
Waffles are checked cookies
User avatar
heppolo
Legend
 
Posts: 13422
Joined: Sun May 17, 2009
Location: interchangeable

Postby LittleArsonist » Sat May 13, 2017 9:45 am

cover
[TW] (WI)
artist
track title
[chartrun]
---------------------------------------------------------------------------------------------------------
50:иgѕ (19/52) - week ending May 14
---------------------------------------------------------------------------------------------------------

---------------------------------------------------------------------------------------------------------
Image Image
01 01 03Royal BloodLights Out
[1-1-1]
---------------------------------------------------------------------------------------------------------
Image Image
02 04 04Lana Del ReyLust For Life (Featuring The Weeknd)
[38-30-4-2]
---------------------------------------------------------------------------------------------------------
Image Image
03 03 09First Aid KitYou Are The Problem Here
[49-39-34-27-15-9-6-3-3]
---------------------------------------------------------------------------------------------------------
Image Image
04 02 11Calvin HarrisSlide (Featuring Frank Ocean & Migos)
[50-48-44-30-10-3-3-1-2-2-4]
---------------------------------------------------------------------------------------------------------
Image Image
05 06 08Marian HillDown
[49-39-25-17-13-11-6-5]
---------------------------------------------------------------------------------------------------------
Image Image
06 07 12Kings Of LeonReverend
[41-37-24-20-10-6-6-5-6-7-7-6]
---------------------------------------------------------------------------------------------------------
Image Image
07 05 10KhalidLocation
[44-32-19-13-8-7-5-3-5-7]
---------------------------------------------------------------------------------------------------------
Image Image
08 08 11LordeGreen Light
[2-1-4-3-3-2-1-2-4-8-8]
---------------------------------------------------------------------------------------------------------
Image Image
09 09 11Bruno MarsThat's What I Like
[27-22-3-2-4-5-4-4-8-9-9]
---------------------------------------------------------------------------------------------------------
Image Image
10 12 07ElbowGentle Storm
[41-32-24-15-12-12-10]
---------------------------------------------------------------------------------------------------------
Image Image
11 15 08James BlakeMy Willing Heart
[48-45-35-30-19-16-15-11]
---------------------------------------------------------------------------------------------------------
Image Image
12 13 06Kendrick LamarHUMBLE.
[48-42-34-20-13-12]
---------------------------------------------------------------------------------------------------------
Image Image
13 29 03TexasLet's Work It Out
[36-29-13]
---------------------------------------------------------------------------------------------------------
Image Image
14 11 08OneRepublicLet's Hurt Tonight
[28-17-11-8-7-9-11-14]
---------------------------------------------------------------------------------------------------------
Image Image
15 20 03London GrammarOh Woman Oh Man
[27-20-15]
---------------------------------------------------------------------------------------------------------
Image Image
16 10 17KaleoWay Down We Go
[33-22-19-12-7-9-12-14-18-1-1-1-2-3-5-10-16]
---------------------------------------------------------------------------------------------------------
Image Image
17 14 12SiaHelium
[1-1-2-5-4-2-4-6-8-10-14-17]
---------------------------------------------------------------------------------------------------------
Image Image
18 24 06Calvin HarrisHeatstroke (Featuring Young Thug, Pharrell Williams & Ariana Grande)
[50-40-31-28-24-18]
---------------------------------------------------------------------------------------------------------
Image Image
19 17 13ElbowMagnificent (She Says)
[10-8-6-6-8-6-9-9-9-11-13-17-19]
---------------------------------------------------------------------------------------------------------
Image Image
20 19 14London GrammarBig Picture
[8-4-6-7-7-9-5-7-12-12-14-18-19-20]
---------------------------------------------------------------------------------------------------------
Image Image
21 18 11ColdplayHypnotised
[3-4-7-12-12-14-11-12-15-18-21]
---------------------------------------------------------------------------------------------------------
Image Image
22 16 11The WeekndReminder
[47-38-11-11-5-7-10-10-14-16-22]
---------------------------------------------------------------------------------------------------------
Image Image
23 21 12Lana Del ReyLove
[3-4-5-10-14-18-13-13-16-19-21-23]
---------------------------------------------------------------------------------------------------------
Image Image
24 33 05BanksCrowded Places
[46-45-39-33-24]
---------------------------------------------------------------------------------------------------------
Image Image
25 23 11John MayerStill Feel Like Your Man
[40-36-34-33-33-29-26-24-22-23-25]
---------------------------------------------------------------------------------------------------------
Image Image
26 22 14Rag'n'Bone ManSkin
[36-30-19-14-9-12-13-15-17-20-17-17-22-26]
---------------------------------------------------------------------------------------------------------
Image Image
27 32 04Lady GagaThe Cure
[40-34-32-27]
---------------------------------------------------------------------------------------------------------
Image Image
28 34 08London GrammarTruth Is A Beautiful Thing
[50-47-44-38-39-38-34-28]
---------------------------------------------------------------------------------------------------------
Image Image
29 37 02X AmbassadorsTorches
[37-29]
---------------------------------------------------------------------------------------------------------
Image Image
30 00 01HaimWant You Back
[30]
---------------------------------------------------------------------------------------------------------
Image Image
31 26 11Ruth BSuperficial Love
[30-26-25-24-24-21-22-21-21-26-31]
---------------------------------------------------------------------------------------------------------
Image Image
32 25 14Imagine DragonsBeliever
[16-14-17-11-11-15-18-21-23-25-25-23-25-32]
---------------------------------------------------------------------------------------------------------
Image Image
33 28 13Depeche ModeWhere's The Revolution
[20-18-23-25-29-8-8-10-14-18-24-28-33]
---------------------------------------------------------------------------------------------------------
Image Image
34 40 03IncubusNimble Bastard
[45-40-34]
---------------------------------------------------------------------------------------------------------
Image Image
35 31 03KasabianAre You Looking For Action?
[31-31-35]
---------------------------------------------------------------------------------------------------------
Image Image
36 27 10Jennifer HudsonRemember Me
[47-45-40-40-38-36-30-26-27-36]
---------------------------------------------------------------------------------------------------------
Image Image
37 35 13Katy PerryChained To The Rhythm (Featuring Skip Marley)
[1-2-5-8-13-16-16-19-19-23-29-35-37]
---------------------------------------------------------------------------------------------------------
Image Image
38 39 03Alessia CaraThe Other Side
[42-39-38]
---------------------------------------------------------------------------------------------------------
Image Image
39 30 17Biffy ClyroRe-Arrange
[48-35-31-18-13-14-13-16-17-17-19-16-18-22-25-30-39]
---------------------------------------------------------------------------------------------------------
Image Image
40 36 09KasabianYou're In Love With A Psycho
[50-31-26-30-27-26-33-36-40]
---------------------------------------------------------------------------------------------------------
Image Image
41 48 02Ed SheeranGalway Girl
[48-41]
---------------------------------------------------------------------------------------------------------
Image Image
42 45 03Sheryl CrowHalfway There
[50-45-42]
---------------------------------------------------------------------------------------------------------
Image Image
43 42 10LordeLiability
[18-27-37-44-41-39-33-43-42-43]
---------------------------------------------------------------------------------------------------------
Image Image
44 38 18Ed SheeranShape Of You
[5-4-4-3-5-11-12-21-3-1-7-11-15-16-20-32-38-44]
---------------------------------------------------------------------------------------------------------
Image Image
45 41 17StarleyCall On Me
[36-32-13-4-3-4-8-10-16-20-25-18-21-27-35-41-45]
---------------------------------------------------------------------------------------------------------
Image Image
46 00 01Red Hot Chili PeppersGoodbye Angels
[46]
---------------------------------------------------------------------------------------------------------
Image Image
47 43 18Ed SheeranCastle On The Hill
[2-2-2-2-3-6-10-16-13-2-9-14-20-23-28-37-43-47]
---------------------------------------------------------------------------------------------------------
Image Image
48 46 18David BowieNo Plan
[1-1-1-1-2-5-10-15-19-21-22-22-28-32-41-46-48]
---------------------------------------------------------------------------------------------------------
Image Image
49 44 19Kings Of LeonFind Me
[3-4-6-6-4-7-8-11-18-19-21-23-23-26-29-29-40-44-49]
---------------------------------------------------------------------------------------------------------
Image Image
50 47 19London GrammarRooting For You
[25-20-10-8-6-6-9-15-19-21-23-25-27-33-33-36-44-47-50]
---------------------------------------------------------------------------------------------------------
OUT
---------------------------------------------------------------------------------------------------------
49 14GoldfrappAnymore
[33-26-22-13-9-12-14-22-28-28-32-35-46-49]
---------------------------------------------------------------------------------------------------------
50 15Arcade FireI Give You Power (Featuring Mavis Staples)
[30-9-9-12-16-22-23-33-35-32-36-41-42-49-50]
---------------------------------------------------------------------------------------------------------
User avatar
LittleArsonist
Personal Assistant
 
Posts: 845
Joined: Wed Jan 14, 2004

Postby heppolo » Sat May 13, 2017 1:14 pm

30 00 01 • Haim • Want You Back
Not their best song, at least for me personally
Waffles are checked cookies
User avatar
heppolo
Legend
 
Posts: 13422
Joined: Sun May 17, 2009
Location: interchangeable

Postby LittleArsonist » Fri May 19, 2017 8:46 am

heppolo wrote:
30 00 01 • Haim • Want You Back
Not their best song, at least for me personally
I actually enjoy it.
To top their debut album will be extremely difficult though.
User avatar
LittleArsonist
Personal Assistant
 
Posts: 845
Joined: Wed Jan 14, 2004

Postby LittleArsonist » Fri May 19, 2017 11:07 am

cover
[TW] (WI)
artist
track title
[chartrun]
---------------------------------------------------------------------------------------------------------
50:иgѕ (20/52) - week ending May 21
---------------------------------------------------------------------------------------------------------

---------------------------------------------------------------------------------------------------------
Image Image
01 02 05Lana Del ReyLust For Life (Featuring The Weeknd)
[38-30-4-2-1]
---------------------------------------------------------------------------------------------------------
Image Image
02 01 04Royal BloodLights Out
[1-1-1-2]
---------------------------------------------------------------------------------------------------------
Image Image
03 30 02HaimWant You Back
[30-3]
---------------------------------------------------------------------------------------------------------
Image Image
04 03 10First Aid KitYou Are The Problem Here
[49-39-34-27-15-9-6-3-3-4]
---------------------------------------------------------------------------------------------------------
Image Image
05 04 12Calvin HarrisSlide (Featuring Frank Ocean & Migos)
[50-48-44-30-10-3-3-1-2-2-4-5]
---------------------------------------------------------------------------------------------------------
Image Image
06 05 09Marian HillDown
[49-39-25-17-13-11-6-5-6]
---------------------------------------------------------------------------------------------------------
Image Image
07 06 13Kings Of LeonReverend
[41-37-24-20-10-6-6-5-6-7-7-6-7]
---------------------------------------------------------------------------------------------------------
Image Image
08 13 04TexasLet's Work It Out
[36-29-13-8]
---------------------------------------------------------------------------------------------------------
Image Image
09 07 11KhalidLocation
[44-32-19-13-8-7-5-3-5-7-9]
---------------------------------------------------------------------------------------------------------
Image Image
10 08 12LordeGreen Light
[2-1-4-3-3-2-1-2-4-8-8-10]
---------------------------------------------------------------------------------------------------------
Image Image
11 10 08ElbowGentle Storm
[41-32-24-15-12-12-10-11]
---------------------------------------------------------------------------------------------------------
Image Image
12 15 04London GrammarOh Woman Oh Man
[27-20-15-12]
---------------------------------------------------------------------------------------------------------
Image Image
13 09 12Bruno MarsThat's What I Like
[27-22-3-2-4-5-4-4-8-9-9-13]
---------------------------------------------------------------------------------------------------------
Image Image
14 11 09James BlakeMy Willing Heart
[48-45-35-30-19-16-15-11-14]
---------------------------------------------------------------------------------------------------------
Image Image
15 12 07Kendrick LamarHUMBLE.
[48-42-34-20-13-12-15]
---------------------------------------------------------------------------------------------------------
Image Image
16 17 13SiaHelium
[1-1-2-5-4-2-4-6-8-10-14-17-16]
---------------------------------------------------------------------------------------------------------
Image Image
17 18 07Calvin HarrisHeatstroke (Featuring Young Thug, Pharrell Williams & Ariana Grande)
[50-40-31-28-24-18-17]
---------------------------------------------------------------------------------------------------------
Image Image
18 14 09OneRepublicLet's Hurt Tonight
[28-17-11-8-7-9-11-14-18]
---------------------------------------------------------------------------------------------------------
Image Image
19 24 06BanksCrowded Places
[46-45-39-33-24-19]
---------------------------------------------------------------------------------------------------------
Image Image
20 16 18KaleoWay Down We Go
[33-22-19-12-7-9-12-14-18-1-1-1-2-3-5-10-16-20]
---------------------------------------------------------------------------------------------------------
Image Image
21 29 03X AmbassadorsTorches
[37-29-21]
---------------------------------------------------------------------------------------------------------
Image Image
22 22 12The WeekndReminder
[47-38-11-11-5-7-10-10-14-16-22-22]
---------------------------------------------------------------------------------------------------------
Image Image
23 21 12ColdplayHypnotised
[3-4-7-12-12-14-11-12-15-18-21-23]
---------------------------------------------------------------------------------------------------------
Image Image
24 19 14ElbowMagnificent (She Says)
[10-8-6-6-8-6-9-9-9-11-13-17-19-24]
---------------------------------------------------------------------------------------------------------
Image Image
25 27 05Lady GagaThe Cure
[40-34-32-27-25]
---------------------------------------------------------------------------------------------------------
Image Image
26 20 15London GrammarBig Picture
[8-4-6-7-7-9-5-7-12-12-14-18-19-20-26]
---------------------------------------------------------------------------------------------------------
Image Image
27 23 13Lana Del ReyLove
[3-4-5-10-14-18-13-13-16-19-21-23-27]
---------------------------------------------------------------------------------------------------------
Image Image
28 41 03Ed SheeranGalway Girl
[48-41-28]
---------------------------------------------------------------------------------------------------------
Image Image
29 34 04IncubusNimble Bastard
[45-40-34-29]
---------------------------------------------------------------------------------------------------------
Image Image
30 28 09London GrammarTruth Is A Beautiful Thing
[50-47-44-38-39-38-34-28-30]
---------------------------------------------------------------------------------------------------------
Image Image
31 38 04Alessia CaraThe Other Side
[42-39-38-31]
---------------------------------------------------------------------------------------------------------
Image Image
32 25 12John MayerStill Feel Like Your Man
[40-36-34-33-33-29-26-24-22-23-25-32]
---------------------------------------------------------------------------------------------------------
Image Image
33 00 01MuseDig Down
[33]
---------------------------------------------------------------------------------------------------------
Image Image
34 26 15Rag'n'Bone ManSkin
[36-30-19-14-9-12-13-15-17-20-17-17-22-26-34]
---------------------------------------------------------------------------------------------------------
Image Image
35 32 15Imagine DragonsBeliever
[16-14-17-11-11-15-18-21-23-25-25-23-25-32-35]
---------------------------------------------------------------------------------------------------------
Image Image
36 42 04Sheryl CrowHalfway There
[50-45-42-36]
---------------------------------------------------------------------------------------------------------
Image Image
37 31 12Ruth BSuperficial Love
[30-26-25-24-24-21-22-21-21-26-31-37]
---------------------------------------------------------------------------------------------------------
Image Image
38 33 14Depeche ModeWhere's The Revolution
[20-18-23-25-29-8-8-10-14-18-24-28-33-38]
---------------------------------------------------------------------------------------------------------
Image Image
39 00 01Lana Del ReyCoachella - Woodstock In My Mind
[39]
---------------------------------------------------------------------------------------------------------
Image Image
40 40 10KasabianYou're In Love With A Psycho
[50-31-26-30-27-26-33-36-40-40]
---------------------------------------------------------------------------------------------------------
Image Image
41 00 01Imagine DragonsThunder
[41]
---------------------------------------------------------------------------------------------------------
Image Image
42 35 04KasabianAre You Looking For Action?
[31-31-35-42]
---------------------------------------------------------------------------------------------------------
Image Image
43 37 14Katy PerryChained To The Rhythm (Featuring Skip Marley)
[1-2-5-8-13-16-16-19-19-23-29-35-37-43]
---------------------------------------------------------------------------------------------------------
Image Image
44 36 11Jennifer HudsonRemember Me
[47-45-40-40-38-36-30-26-27-36-44]
---------------------------------------------------------------------------------------------------------
Image Image
45 39 18Biffy ClyroRe-Arrange
[48-35-31-18-13-14-13-16-17-17-19-16-18-22-25-30-39-45]
---------------------------------------------------------------------------------------------------------
Image Image
46 46 02Red Hot Chili PeppersGoodbye Angels
[46-46]
---------------------------------------------------------------------------------------------------------
Image Image
47 00 01Frank OceanBiking (Solo)
[47]
---------------------------------------------------------------------------------------------------------
Image Image
48 44 19Ed SheeranShape Of You
[5-4-4-3-5-11-12-21-3-1-7-11-15-16-20-32-38-44-48]
---------------------------------------------------------------------------------------------------------
Image Image
49 50 20London GrammarRooting For You
[25-20-10-8-6-6-9-15-19-21-23-25-27-33-33-36-44-47-50-49]
---------------------------------------------------------------------------------------------------------
Image Image
50 00 01Liam PayneStrip That Down (Featuring Quavo)
[50]
---------------------------------------------------------------------------------------------------------
OUT
---------------------------------------------------------------------------------------------------------
43 10LordeLiability
[18-27-37-44-41-39-33-43-42-43]
---------------------------------------------------------------------------------------------------------
45 17StarleyCall On Me
[36-32-13-4-3-4-8-10-16-20-25-18-21-27-35-41-45]
---------------------------------------------------------------------------------------------------------
47 18Ed SheeranCastle On The Hill
[2-2-2-2-3-6-10-16-13-2-9-14-20-23-28-37-43-47]
---------------------------------------------------------------------------------------------------------
48 18David BowieNo Plan
[1-1-1-1-2-5-10-15-19-21-22-22-28-32-41-46-48]
---------------------------------------------------------------------------------------------------------
49 19Kings Of LeonFind Me
[3-4-6-6-4-7-8-11-18-19-21-23-23-26-29-29-40-44-49]
---------------------------------------------------------------------------------------------------------
User avatar
LittleArsonist
Personal Assistant
 
Posts: 845
Joined: Wed Jan 14, 2004

Postby LittleArsonist » Fri May 26, 2017 11:34 am

cover
[TW] (WI)
artist
track title
[chartrun]
---------------------------------------------------------------------------------------------------------
50:иgѕ (21/52) - week ending May 28
---------------------------------------------------------------------------------------------------------

---------------------------------------------------------------------------------------------------------
Image Image
01 03 03HaimWant You Back
[30-3-1]
---------------------------------------------------------------------------------------------------------
Image Image
02 00 01SiaTo Be Human (Featuring Labrinth)
[2]
---------------------------------------------------------------------------------------------------------
Image Image
03 01 06Lana Del ReyLust For Life (Featuring The Weeknd)
[38-30-4-2-1-3]
---------------------------------------------------------------------------------------------------------
Image Image
04 02 05Royal BloodLights Out
[1-1-1-2-4]
---------------------------------------------------------------------------------------------------------
Image Image
05 08 05TexasLet's Work It Out
[36-29-13-8-5]
---------------------------------------------------------------------------------------------------------
Image Image
06 04 11First Aid KitYou Are The Problem Here
[49-39-34-27-15-9-6-3-3-4-6]
---------------------------------------------------------------------------------------------------------
Image Image
07 00 01Julia MichaelsIssues
[7]
---------------------------------------------------------------------------------------------------------
Image Image
08 05 13Calvin HarrisSlide (Featuring Frank Ocean & Migos)
[50-48-44-30-10-3-3-1-2-2-4-5-8]
---------------------------------------------------------------------------------------------------------
Image Image
09 06 10Marian HillDown
[49-39-25-17-13-11-6-5-6-9]
---------------------------------------------------------------------------------------------------------
Image Image
10 09 12KhalidLocation
[44-32-19-13-8-7-5-3-5-7-9-10]
---------------------------------------------------------------------------------------------------------
Image Image
11 07 14Kings Of LeonReverend
[41-37-24-20-10-6-6-5-6-7-7-6-7]
---------------------------------------------------------------------------------------------------------
Image Image
12 12 05London GrammarOh Woman Oh Man
[27-20-15-12-12]
---------------------------------------------------------------------------------------------------------
Image Image
13 17 08Calvin HarrisHeatstroke (Featuring Young Thug, Pharrell Williams & Ariana Grande)
[50-40-31-28-24-18-17-13]
---------------------------------------------------------------------------------------------------------
Image Image
14 11 09ElbowGentle Storm
[41-32-24-15-12-12-10-11-14]
---------------------------------------------------------------------------------------------------------
Image Image
15 10 13LordeGreen Light
[2-1-4-3-3-2-1-2-4-8-8-10-15]
---------------------------------------------------------------------------------------------------------
Image Image
16 19 07BanksCrowded Places
[46-45-39-33-24-19-16]
---------------------------------------------------------------------------------------------------------
Image Image
17 28 04Ed SheeranGalway Girl
[48-41-28-17]
---------------------------------------------------------------------------------------------------------
Image Image
18 14 10James BlakeMy Willing Heart
[48-45-35-30-19-16-15-11-14-18]
---------------------------------------------------------------------------------------------------------
Image Image
19 21 04X AmbassadorsTorches
[37-29-21-19]
---------------------------------------------------------------------------------------------------------
Image Image
20 15 08Kendrick LamarHUMBLE.
[48-42-34-20-13-12-15-20]
---------------------------------------------------------------------------------------------------------
Image Image
21 13 13Bruno MarsThat's What I Like
[27-22-3-2-4-5-4-4-8-9-9-13-21]
---------------------------------------------------------------------------------------------------------
Image Image
22 16 14SiaHelium
[1-1-2-5-4-2-4-6-8-10-14-17-16-22]
---------------------------------------------------------------------------------------------------------
Image Image
23 18 10OneRepublicLet's Hurt Tonight
[28-17-11-8-7-9-11-14-18-23]
---------------------------------------------------------------------------------------------------------
Image Image
24 25 06Lady GagaThe Cure
[40-34-32-27-25-24]
---------------------------------------------------------------------------------------------------------
Image Image
25 26 16London GrammarBig Picture
[8-4-6-7-7-9-5-7-12-12-14-18-19-20-26-25]
---------------------------------------------------------------------------------------------------------
Image Image
26 33 02MuseDig Down
[33-26]
---------------------------------------------------------------------------------------------------------
Image Image
27 24 15ElbowMagnificent (She Says)
[10-8-6-6-8-6-9-9-9-11-13-17-19-24-27]
---------------------------------------------------------------------------------------------------------
Image Image
28 31 05Alessia CaraThe Other Side
[42-39-38-31-28]
---------------------------------------------------------------------------------------------------------
Image Image
29 22 13The WeekndReminder
[47-38-11-11-5-7-10-10-14-16-22-22-29]
---------------------------------------------------------------------------------------------------------
Image Image
30 23 13ColdplayHypnotised
[3-4-7-12-12-14-11-12-15-18-21-23-30]
---------------------------------------------------------------------------------------------------------
Image Image
31 20 19KaleoWay Down We Go
[33-22-19-12-7-9-12-14-18-1-1-1-2-3-5-10-16-20-31]
---------------------------------------------------------------------------------------------------------
Image Image
32 27 14Lana Del ReyLove
[3-4-5-10-14-18-13-13-16-19-21-23-27-32]
---------------------------------------------------------------------------------------------------------
Image Image
33 29 05IncubusNimble Bastard
[45-40-34-29-33]
---------------------------------------------------------------------------------------------------------
Image Image
34 36 05Sheryl CrowHalfway There
[50-45-42-36-34]
---------------------------------------------------------------------------------------------------------
Image Image
35 39 02Lana Del ReyCoachella - Woodstock In My Mind
[39-35]
---------------------------------------------------------------------------------------------------------
Image Image
36 30 10London GrammarTruth Is A Beautiful Thing
[50-47-44-38-39-38-34-28-30-36]
---------------------------------------------------------------------------------------------------------
Image Image
37 32 13John MayerStill Feel Like Your Man
[40-36-34-33-33-29-26-24-22-23-25-32-37]
---------------------------------------------------------------------------------------------------------
Image Image
38 00 01Harry StylesSign Of The Times
[38]
---------------------------------------------------------------------------------------------------------
Image Image
39 34 16Rag'n'Bone ManSkin
[36-30-19-14-9-12-13-15-17-20-17-17-22-26-34-39]
---------------------------------------------------------------------------------------------------------
Image Image
40 41 02Imagine DragonsThunder
[41-40]
---------------------------------------------------------------------------------------------------------
Image Image
41 40 11KasabianYou're In Love With A Psycho
[50-31-26-30-27-26-33-36-40-40-41]
---------------------------------------------------------------------------------------------------------
Image Image
42 35 16Imagine DragonsBeliever
[16-14-17-11-11-15-18-21-23-25-25-23-25-32-35-42]
---------------------------------------------------------------------------------------------------------
Image Image
43 37 13Ruth BSuperficial Love
[30-26-25-24-24-21-22-21-21-26-31-37-43]
---------------------------------------------------------------------------------------------------------
Image Image
44 47 02Frank OceanBiking (Solo)
[47-44]
---------------------------------------------------------------------------------------------------------
Image Image
45 42 05KasabianAre You Looking For Action?
[31-31-35-42-45]
---------------------------------------------------------------------------------------------------------
Image Image
46 50 02Liam PayneStrip That Down (Featuring Quavo)
[50-46]
---------------------------------------------------------------------------------------------------------
Image Image
47 44 12Jennifer HudsonRemember Me
[47-45-40-40-38-36-30-26-27-36-44-47]
---------------------------------------------------------------------------------------------------------
Image Image
48 43 15Katy PerryChained To The Rhythm (Featuring Skip Marley)
[1-2-5-8-13-16-16-19-19-23-29-35-37-43-48]
---------------------------------------------------------------------------------------------------------
Image Image
49 45 19Biffy ClyroRe-Arrange
[48-35-31-18-13-14-13-16-17-17-19-16-18-22-25-30-39-45-49]
---------------------------------------------------------------------------------------------------------
Image Image
50 38 15Depeche ModeWhere's The Revolution
[20-18-23-25-29-8-8-10-14-18-24-28-33-38-50]
---------------------------------------------------------------------------------------------------------
OUT
---------------------------------------------------------------------------------------------------------
46 02Red Hot Chili PeppersGoodbye Angels
[46-46]
---------------------------------------------------------------------------------------------------------
48 19Ed SheeranShape Of You
[5-4-4-3-5-11-12-21-3-1-7-11-15-16-20-32-38-44-48]
---------------------------------------------------------------------------------------------------------
49 20London GrammarRooting For You
[25-20-10-8-6-6-9-15-19-21-23-25-27-33-33-36-44-47-50-49]
---------------------------------------------------------------------------------------------------------
User avatar
LittleArsonist
Personal Assistant
 
Posts: 845
Joined: Wed Jan 14, 2004

Postby LittleArsonist » Sat Jun 03, 2017 10:25 am

cover
[TW] (WI)
artist
track title
[chartrun]
---------------------------------------------------------------------------------------------------------
50:иgѕ (22/52) - week ending June 4
---------------------------------------------------------------------------------------------------------

---------------------------------------------------------------------------------------------------------
Image Image
01 02 02SiaTo Be Human (Featuring Labrinth)
[2-1]
---------------------------------------------------------------------------------------------------------
Image Image
02 01 04HaimWant You Back
[30-3-1-2]
---------------------------------------------------------------------------------------------------------
Image Image
03 07 02Julia MichaelsIssues
[7-3]
---------------------------------------------------------------------------------------------------------
Image Image
04 03 07Lana Del ReyLust For Life (Featuring The Weeknd)
[38-30-4-2-1-3-4]
---------------------------------------------------------------------------------------------------------
Image Image
05 05 06TexasLet's Work It Out
[36-29-13-8-5-5]
---------------------------------------------------------------------------------------------------------
Image Image
06 04 06Royal BloodLights Out
[1-1-1-2-4-6]
---------------------------------------------------------------------------------------------------------
Image Image
07 09 11Marian HillDown
[49-39-25-17-13-11-6-5-6-9-7]
---------------------------------------------------------------------------------------------------------
Image Image
08 08 14Calvin HarrisSlide (Featuring Frank Ocean & Migos)
[50-48-44-30-10-3-3-1-2-2-4-5-8-8]
---------------------------------------------------------------------------------------------------------
Image Image
09 06 12First Aid KitYou Are The Problem Here
[49-39-34-27-15-9-6-3-3-4-6-9]
---------------------------------------------------------------------------------------------------------
Image Image
10 00 01Arcade FireEverything Now
[10]
---------------------------------------------------------------------------------------------------------
Image Image
11 19 05X AmbassadorsTorches
[37-29-21-19-11]
---------------------------------------------------------------------------------------------------------
Image Image
12 13 09Calvin HarrisHeatstroke (Featuring Young Thug, Pharrell Williams & Ariana Grande)
[50-40-31-28-24-18-17-13-12]
---------------------------------------------------------------------------------------------------------
Image Image
13 12 06London GrammarOh Woman Oh Man
[27-20-15-12-12-13]
---------------------------------------------------------------------------------------------------------
Image Image
14 16 08BanksCrowded Places
[46-45-39-33-24-19-16-14]
---------------------------------------------------------------------------------------------------------
Image Image
15 10 13KhalidLocation
[44-32-19-13-8-7-5-3-5-7-9-10-15]
---------------------------------------------------------------------------------------------------------
Image Image
16 14 10ElbowGentle Storm
[41-32-24-15-12-12-10-11-14-16]
---------------------------------------------------------------------------------------------------------
Image Image
17 11 15Kings Of LeonReverend
[41-37-24-20-10-6-6-5-6-7-7-6-7-11-17]
---------------------------------------------------------------------------------------------------------
Image Image
18 15 14LordeGreen Light
[2-1-4-3-3-2-1-2-4-8-8-10-15-18]
---------------------------------------------------------------------------------------------------------
Image Image
19 17 05Ed SheeranGalway Girl
[48-41-28-17-19]
---------------------------------------------------------------------------------------------------------
Image Image
20 18 11James BlakeMy Willing Heart
[48-45-35-30-19-16-15-11-14-18-20]
---------------------------------------------------------------------------------------------------------
Image Image
21 26 03MuseDig Down
[33-26-21]
---------------------------------------------------------------------------------------------------------
Image Image
22 38 02Harry StylesSign Of The Times
[38-22]
---------------------------------------------------------------------------------------------------------
Image Image
23 28 06Alessia CaraThe Other Side
[42-39-38-31-28-23]
---------------------------------------------------------------------------------------------------------
Image Image
24 21 14Bruno MarsThat's What I Like
[27-22-3-2-4-5-4-4-8-9-9-13-21-24]
---------------------------------------------------------------------------------------------------------
Image Image
25 20 09Kendrick LamarHUMBLE.
[48-42-34-20-13-12-15-20-25]
---------------------------------------------------------------------------------------------------------
Image Image
26 27 16ElbowMagnificent (She Says)
[10-8-6-6-8-6-9-9-9-11-13-17-19-24-27-26]
---------------------------------------------------------------------------------------------------------
Image Image
27 22 15SiaHelium
[1-1-2-5-4-2-4-6-8-10-14-17-16-22-27]
---------------------------------------------------------------------------------------------------------
Image Image
28 35 03Lana Del ReyCoachella - Woodstock In My Mind
[39-35-28]
---------------------------------------------------------------------------------------------------------
Image Image
29 24 07Lady GagaThe Cure
[40-34-32-27-25-24-29]
---------------------------------------------------------------------------------------------------------
Image Image
30 00 01LordePerfect Places
[30]
---------------------------------------------------------------------------------------------------------
Image Image
31 23 11OneRepublicLet's Hurt Tonight
[28-17-11-8-7-9-11-14-18-23-31]
---------------------------------------------------------------------------------------------------------
Image Image
32 25 17London GrammarBig Picture
[8-4-6-7-7-9-5-7-12-12-14-18-19-20-26-25-32]
---------------------------------------------------------------------------------------------------------
Image Image
33 30 14ColdplayHypnotised
[3-4-7-12-12-14-11-12-15-18-21-23-30-33]
---------------------------------------------------------------------------------------------------------
Image Image
34 34 06Sheryl CrowHalfway There
[50-45-42-36-34-34]
---------------------------------------------------------------------------------------------------------
Image Image
35 40 03Imagine DragonsThunder
[41-40-35]
---------------------------------------------------------------------------------------------------------
Image Image
36 29 14The WeekndReminder
[47-38-11-11-5-7-10-10-14-16-22-22-29-36]
---------------------------------------------------------------------------------------------------------
Image Image
37 33 06IncubusNimble Bastard
[45-40-34-29-33-37]
---------------------------------------------------------------------------------------------------------
Image Image
38 32 15Lana Del ReyLove
[3-4-5-10-14-18-13-13-16-19-21-23-27-32-38]
---------------------------------------------------------------------------------------------------------
Image Image
39 41 12KasabianYou're In Love With A Psycho
[50-31-26-30-27-26-33-36-40-40-41-39]
---------------------------------------------------------------------------------------------------------
Image Image
40 37 14John MayerStill Feel Like Your Man
[40-36-34-33-33-29-26-24-22-23-25-32-37-40]
---------------------------------------------------------------------------------------------------------
Image Image
41 46 03Liam PayneStrip That Down (Featuring Quavo)
[50-46-41]
---------------------------------------------------------------------------------------------------------
Image Image
42 44 03Frank OceanBiking (Solo)
[47-44-42]
---------------------------------------------------------------------------------------------------------
Image Image
43 31 20KaleoWay Down We Go
[33-22-19-12-7-9-12-14-18-1-1-1-2-3-5-10-16-20-31-43]
---------------------------------------------------------------------------------------------------------
Image Image
44 36 11London GrammarTruth Is A Beautiful Thing
[50-47-44-38-39-38-34-28-30-36-44]
---------------------------------------------------------------------------------------------------------
Image Image
45 39 17Rag'n'Bone ManSkin
[36-30-19-14-9-12-13-15-17-20-17-17-22-26-34-39-45]
---------------------------------------------------------------------------------------------------------
Image Image
46 42 17Imagine DragonsBeliever
[16-14-17-11-11-15-18-21-23-25-25-23-25-32-35-42-46]
---------------------------------------------------------------------------------------------------------
Image Image
47 45 06KasabianAre You Looking For Action?
[31-31-35-42-45-47]
---------------------------------------------------------------------------------------------------------
Image Image
48 47 13Jennifer HudsonRemember Me
[47-45-40-40-38-36-30-26-27-36-44-47-48]
---------------------------------------------------------------------------------------------------------
Image Image
49 43 14Ruth BSuperficial Love
[30-26-25-24-24-21-22-21-21-26-31-37-43-49]
---------------------------------------------------------------------------------------------------------
Image Image
50 00 01Foo FightersRun
[50]
---------------------------------------------------------------------------------------------------------
OUT
---------------------------------------------------------------------------------------------------------
48 15Katy PerryChained To The Rhythm (Featuring Skip Marley)
[1-2-5-8-13-16-16-19-19-23-29-35-37-43-48]
---------------------------------------------------------------------------------------------------------
49 19Biffy ClyroRe-Arrange
[48-35-31-18-13-14-13-16-17-17-19-16-18-22-25-30-39-45-49]
---------------------------------------------------------------------------------------------------------
50 15Depeche ModeWhere's The Revolution
[20-18-23-25-29-8-8-10-14-18-24-28-33-38-50]
---------------------------------------------------------------------------------------------------------
User avatar
LittleArsonist
Personal Assistant
 
Posts: 845
Joined: Wed Jan 14, 2004

Postby heppolo » Sat Jun 03, 2017 3:01 pm

50 00 01 • Foo Fighters • Run
[50]
Only just managed to squeeze into the chart :)
05 05 06 • Texas • Let's Work It Out
Texas is top 5, that's a bit surprising, but I have to admit they came back strong
10 00 01 • Arcade Fire • Everything Now
Okay-ish, but I was quickly over it.
Waffles are checked cookies
User avatar
heppolo
Legend
 
Posts: 13422
Joined: Sun May 17, 2009
Location: interchangeable

Postby LittleArsonist » Fri Jun 09, 2017 9:06 am

heppolo wrote:
50 00 01 • Foo Fighters • Run
[50]
Only just managed to squeeze into the chart :)
yep.... some bits of the track still need to grow on me :-?

05 05 06 • Texas • Let's Work It Out
Texas is top 5, that's a bit surprising, but I have to admit they came back strong
always loved Texas... this album sounds a lot like their classic successful albums

10 00 01 • Arcade Fire • Everything Now
Okay-ish, but I was quickly over it.
totally in love with it :oops:
User avatar
LittleArsonist
Personal Assistant
 
Posts: 845
Joined: Wed Jan 14, 2004

Return to Personal Charts