50:иgѕ w/e November 19 - new heights

Moderators: tdc2000, FreakyFlyBry

 

Postby LittleArsonist » Fri Jun 09, 2017 12:54 pm

cover
[TW] (WI)
artist
track title
[chartrun]
---------------------------------------------------------------------------------------------------------
50:иgѕ (23/52) - week ending June 11
---------------------------------------------------------------------------------------------------------

---------------------------------------------------------------------------------------------------------
Image Image
01 10 02Arcade FireEverything Now
[10-1]
---------------------------------------------------------------------------------------------------------
Image Image
02 03 03Julia MichaelsIssues
[7-3-2]
---------------------------------------------------------------------------------------------------------
Image Image
03 00 01SiaFree Me
[3]
---------------------------------------------------------------------------------------------------------
Image Image
04 01 03SiaTo Be Human (Featuring Labrinth)
[2-1-4]
---------------------------------------------------------------------------------------------------------
Image Image
05 05 07TexasLet's Work It Out
[36-29-13-8-5-5-5]
---------------------------------------------------------------------------------------------------------
Image Image
06 02 05HaimWant You Back
[30-3-1-2-6]
---------------------------------------------------------------------------------------------------------
Image Image
07 04 08Lana Del ReyLust For Life (Featuring The Weeknd)
[38-30-4-2-1-3-4-7]
---------------------------------------------------------------------------------------------------------
Image Image
08 11 06X AmbassadorsTorches
[37-29-21-19-11-8]
---------------------------------------------------------------------------------------------------------
Image Image
09 06 07Royal BloodLights Out
[1-1-1-2-4-6-9]
---------------------------------------------------------------------------------------------------------
Image Image
10 07 12Marian HillDown
[49-39-25-17-13-11-6-5-6-9-7-10]
---------------------------------------------------------------------------------------------------------
Image Image
11 14 09BanksCrowded Places
[46-45-39-33-24-19-16-14-11]
---------------------------------------------------------------------------------------------------------
Image Image
12 08 15Calvin HarrisSlide (Featuring Frank Ocean & Migos)
[50-48-44-30-10-3-3-1-2-2-4-5-8-8-12]
---------------------------------------------------------------------------------------------------------
Image Image
13 13 07London GrammarOh Woman Oh Man
[27-20-15-12-12-13-13]
---------------------------------------------------------------------------------------------------------
Image Image
14 09 13First Aid KitYou Are The Problem Here
[49-39-34-27-15-9-6-3-3-4-6-9-14]
---------------------------------------------------------------------------------------------------------
Image Image
15 00 01Liam GallagherWall Of Glass
[15]
---------------------------------------------------------------------------------------------------------
Image Image
16 12 10Calvin HarrisHeatstroke (Featuring Young Thug, Pharrell Williams & Ariana Grande)
[50-40-31-28-24-18-17-13-12-16]
---------------------------------------------------------------------------------------------------------
Image Image
17 21 04MuseDig Down
[33-26-21-17]
---------------------------------------------------------------------------------------------------------
Image Image
18 16 11ElbowGentle Storm
[41-32-24-15-12-12-10-11-14-16-18]
---------------------------------------------------------------------------------------------------------
Image Image
19 19 06Ed SheeranGalway Girl
[48-41-28-17-19-19]
---------------------------------------------------------------------------------------------------------
Image Image
20 22 03Harry StylesSign Of The Times
[38-22-20]
---------------------------------------------------------------------------------------------------------
Image Image
21 23 07Alessia CaraThe Other Side
[42-39-38-31-28-23-21]
---------------------------------------------------------------------------------------------------------
Image Image
22 15 14KhalidLocation
[44-32-19-13-8-7-5-3-5-7-9-10-15-22]
---------------------------------------------------------------------------------------------------------
Image Image
23 17 16Kings Of LeonReverend
[41-37-24-20-10-6-6-5-6-7-7-6-7-11-17-23]
---------------------------------------------------------------------------------------------------------
Image Image
24 20 12James BlakeMy Willing Heart
[48-45-35-30-19-16-15-11-14-18-20-24]
---------------------------------------------------------------------------------------------------------
Image Image
25 00 01KhalidYoung Dumb & Broke
[25]
---------------------------------------------------------------------------------------------------------
Image Image
26 18 15LordeGreen Light
[2-1-4-3-3-2-1-2-4-8-8-10-15-18-26]
---------------------------------------------------------------------------------------------------------
Image Image
27 28 04Lana Del ReyCoachella - Woodstock In My Mind
[39-35-28-27]
---------------------------------------------------------------------------------------------------------
Image Image
28 24 15Bruno MarsThat's What I Like
[27-22-3-2-4-5-4-4-8-9-9-13-21-24-28]
---------------------------------------------------------------------------------------------------------
Image Image
29 25 10Kendrick LamarHUMBLE.
[48-42-34-20-13-12-15-20-25-29]
---------------------------------------------------------------------------------------------------------
Image Image
30 35 04Imagine DragonsThunder
[41-40-35-30]
---------------------------------------------------------------------------------------------------------
Image Image
31 26 17ElbowMagnificent (She Says)
[10-8-6-6-8-6-9-9-9-11-13-17-19-24-27-26-31]
---------------------------------------------------------------------------------------------------------
Image Image
32 34 07Sheryl CrowHalfway There
[50-45-42-36-34-34-32]
---------------------------------------------------------------------------------------------------------
Image Image
33 27 16SiaHelium
[1-1-2-5-4-2-4-6-8-10-14-17-16-22-27-33]
---------------------------------------------------------------------------------------------------------
Image Image
34 32 18London GrammarBig Picture
[8-4-6-7-7-9-5-7-12-12-14-18-19-20-26-25-32-34]
---------------------------------------------------------------------------------------------------------
Image Image
35 33 15ColdplayHypnotised
[3-4-7-12-12-14-11-12-15-18-21-23-30-33-35]
---------------------------------------------------------------------------------------------------------
Image Image
36 29 08Lady GagaThe Cure
[40-34-32-27-25-24-29-36]
----------------------------------------------------------------------------------------------------------
Image Image
37 30 02LordePerfect Places
[30-37]
---------------------------------------------------------------------------------------------------------
Image Image
38 31 12OneRepublicLet's Hurt Tonight
[28-17-11-8-7-9-11-14-18-23-31-38]
---------------------------------------------------------------------------------------------------------
Image Image
39 39 13KasabianYou're In Love With A Psycho
[50-31-26-30-27-26-33-36-40-40-41-39-39]
---------------------------------------------------------------------------------------------------------
Image Image
40 44 12London GrammarTruth Is A Beautiful Thing
[50-47-44-38-39-38-34-28-30-36-44-40]
---------------------------------------------------------------------------------------------------------
Image Image
41 41 04Liam PayneStrip That Down (Featuring Quavo)
[50-46-41-41]
---------------------------------------------------------------------------------------------------------
Image Image
42 40 15John MayerStill Feel Like Your Man
[40-36-34-33-33-29-26-24-22-23-25-32-37-40-42]
---------------------------------------------------------------------------------------------------------
Image Image
43 00 01Maggie LindemannPretty Girl
[43]
---------------------------------------------------------------------------------------------------------
Image Image
44 38 16Lana Del ReyLove
[3-4-5-10-14-18-13-13-16-19-21-23-27-32-38-44]
---------------------------------------------------------------------------------------------------------
Image Image
45 36 15The WeekndReminder
[47-38-11-11-5-7-10-10-14-16-22-22-29-36-45]
---------------------------------------------------------------------------------------------------------
Image Image
46 00 01HalseyStrangers (Featuring Lauren Jauregui)
[46]
---------------------------------------------------------------------------------------------------------
Image Image
47 37 07IncubusNimble Bastard
[45-40-34-29-33-37-47]
---------------------------------------------------------------------------------------------------------
Image Image
48 50 02Foo FightersRun
[50-48]
---------------------------------------------------------------------------------------------------------
Image Image
49 46 18Imagine DragonsBeliever
[16-14-17-11-11-15-18-21-23-25-25-23-25-32-35-42-46-49]
---------------------------------------------------------------------------------------------------------
Image Image
50 45 18Rag'n'Bone ManSkin
[36-30-19-14-9-12-13-15-17-20-17-17-22-26-34-39-45-50]
---------------------------------------------------------------------------------------------------------
OUT
---------------------------------------------------------------------------------------------------------
42 03Frank OceanBiking (Solo)
[47-44-42]
---------------------------------------------------------------------------------------------------------
43 20KaleoWay Down We Go
[33-22-19-12-7-9-12-14-18-1-1-1-2-3-5-10-16-20-31-43]
---------------------------------------------------------------------------------------------------------
47 06KasabianAre You Looking For Action?
[31-31-35-42-45-47]
---------------------------------------------------------------------------------------------------------
48 13Jennifer HudsonRemember Me
[47-45-40-40-38-36-30-26-27-36-44-47-48]
---------------------------------------------------------------------------------------------------------
49 14Ruth BSuperficial Love
[30-26-25-24-24-21-22-21-21-26-31-37-43-49]
---------------------------------------------------------------------------------------------------------
User avatar
LittleArsonist
Personal Assistant
 
Posts: 845
Joined: Wed Jan 14, 2004

Postby heppolo » Fri Jun 09, 2017 1:38 pm

15 00 01 • Liam Gallagher • Wall Of Glass
Liam is still at it 8-)
Waffles are checked cookies
User avatar
heppolo
Legend
 
Posts: 13466
Joined: Sun May 17, 2009
Location: interchangeable

Postby LittleArsonist » Fri Jun 16, 2017 6:05 pm

heppolo wrote:
15 00 01 • Liam Gallagher • Wall Of Glass
Liam is still at it 8-)
awesome debut solo single
User avatar
LittleArsonist
Personal Assistant
 
Posts: 845
Joined: Wed Jan 14, 2004

Postby LittleArsonist » Fri Jun 16, 2017 7:35 pm

cover
[TW] (WI)
artist
track title
[chartrun]
---------------------------------------------------------------------------------------------------------
50:иgѕ (24/52) - week ending June 18
---------------------------------------------------------------------------------------------------------

---------------------------------------------------------------------------------------------------------
Image Image
01 01 03Arcade FireEverything Now
[10-1-1]
---------------------------------------------------------------------------------------------------------
Image Image
02 00 01Roger WatersThe Last Refugee
[2]
---------------------------------------------------------------------------------------------------------
Image Image
03 24 13James BlakeMy Willing Heart
[48-45-35-30-19-16-15-11-14-18-20-24-3]
---------------------------------------------------------------------------------------------------------
Image Image
04 03 02SiaFree Me
[3-4]
---------------------------------------------------------------------------------------------------------
Image Image
05 02 04Julia MichaelsIssues
[7-3-2-5]
---------------------------------------------------------------------------------------------------------
Image Image
06 04 04SiaTo Be Human (Featuring Labrinth)
[2-1-4-6]
---------------------------------------------------------------------------------------------------------
Image Image
07 09 08Royal BloodLights Out
[1-1-1-2-4-6-9-7]
---------------------------------------------------------------------------------------------------------
Image Image
08 08 07X AmbassadorsTorches
[37-29-21-19-11-8-8]
---------------------------------------------------------------------------------------------------------
Image Image
09 15 02Liam GallagherWall Of Glass
[15-9]
---------------------------------------------------------------------------------------------------------
Image Image
10 05 08TexasLet's Work It Out
[36-29-13-8-5-5-5-10]
---------------------------------------------------------------------------------------------------------
Image Image
11 06 06HaimWant You Back
[30-3-1-2-6-11]
---------------------------------------------------------------------------------------------------------
Image Image
12 07 09Lana Del ReyLust For Life (Featuring The Weeknd)
[38-30-4-2-1-3-4-7-12]
---------------------------------------------------------------------------------------------------------
Image Image
13 17 05MuseDig Down
[33-26-21-17-13]
---------------------------------------------------------------------------------------------------------
Image Image
14 11 10BanksCrowded Places
[46-45-39-33-24-19-16-14-11-14]
---------------------------------------------------------------------------------------------------------
Image Image
15 20 04Harry StylesSign Of The Times
[38-22-20-15]
---------------------------------------------------------------------------------------------------------
Image Image
16 10 13Marian HillDown
[49-39-25-17-13-11-6-5-6-9-7-10-16]
---------------------------------------------------------------------------------------------------------
Image Image
17 13 08London GrammarOh Woman Oh Man
[27-20-15-12-12-13-13-17]
---------------------------------------------------------------------------------------------------------
Image Image
18 14 14First Aid KitYou Are The Problem Here
[49-39-34-27-15-9-6-3-3-4-6-9-14-18]
---------------------------------------------------------------------------------------------------------
Image Image
19 25 02KhalidYoung Dumb & Broke
[25-19]
---------------------------------------------------------------------------------------------------------
Image Image
20 12 16Calvin HarrisSlide (Featuring Frank Ocean & Migos)
[50-48-44-30-10-3-3-1-2-2-4-5-8-8-12-20]
---------------------------------------------------------------------------------------------------------
Image Image
21 21 08Alessia CaraThe Other Side
[42-39-38-31-28-23-21-21]
---------------------------------------------------------------------------------------------------------
Image Image
22 16 11Calvin HarrisHeatstroke (Featuring Young Thug, Pharrell Williams & Ariana Grande)
[50-40-31-28-24-18-17-13-12-16-22]
---------------------------------------------------------------------------------------------------------
Image Image
23 26 16LordeGreen Light
[2-1-4-3-3-2-1-2-4-8-8-10-15-18-26-23]
---------------------------------------------------------------------------------------------------------
Image Image
24 18 12ElbowGentle Storm
[41-32-24-15-12-12-10-11-14-16-18-24]
---------------------------------------------------------------------------------------------------------
Image Image
25 22 15KhalidLocation
[44-32-19-13-8-7-5-3-5-7-9-10-15-22-25]
---------------------------------------------------------------------------------------------------------
Image Image
26 19 07Ed SheeranGalway Girl
[48-41-28-17-19-19-26]
---------------------------------------------------------------------------------------------------------
Image Image
27 23 17Kings Of LeonReverend
[41-37-24-20-10-6-6-5-6-7-7-6-7-11-17-23-27]
---------------------------------------------------------------------------------------------------------
Image Image
28 27 05Lana Del ReyCoachella - Woodstock In My Mind
[39-35-28-27-28]
---------------------------------------------------------------------------------------------------------
Image Image
29 43 02Maggie LindemannPretty Girl
[43-29]
---------------------------------------------------------------------------------------------------------
Image Image
30 30 05Imagine DragonsThunder
[41-40-35-30-30]
---------------------------------------------------------------------------------------------------------
Image Image
31 28 16Bruno MarsThat's What I Like
[27-22-3-2-4-5-4-4-8-9-9-13-21-24-28-31]
---------------------------------------------------------------------------------------------------------
Image Image
32 32 08Sheryl CrowHalfway There
[50-45-42-36-34-34-32-32]
---------------------------------------------------------------------------------------------------------
Image Image
33 34 19London GrammarBig Picture
[8-4-6-7-7-9-5-7-12-12-14-18-19-20-26-25-32-34-33]
---------------------------------------------------------------------------------------------------------
Image Image
34 29 11Kendrick LamarHUMBLE.
[48-42-34-20-13-12-15-20-25-29-34]
---------------------------------------------------------------------------------------------------------
Image Image
35 33 17SiaHelium
[1-1-2-5-4-2-4-6-8-10-14-17-16-22-27-33-35]
---------------------------------------------------------------------------------------------------------
Image Image
36 35 16ColdplayHypnotised
[3-4-7-12-12-14-11-12-15-18-21-23-30-33-35-36]
---------------------------------------------------------------------------------------------------------
Image Image
37 31 18ElbowMagnificent (She Says)
[10-8-6-6-8-6-9-9-9-11-13-17-19-24-27-26-31-37]
---------------------------------------------------------------------------------------------------------
Image Image
38 40 13London GrammarTruth Is A Beautiful Thing
[50-47-44-38-39-38-34-28-30-36-44-40-38]
----------------------------------------------------------------------------------------------------------
Image Image
39 46 02HalseyStrangers (Featuring Lauren Jauregui)
[46-39]
---------------------------------------------------------------------------------------------------------
Image Image
40 36 09Lady GagaThe Cure
[40-34-32-27-25-24-29-36-40]
---------------------------------------------------------------------------------------------------------
Image Image
41 39 14KasabianYou're In Love With A Psycho
[50-31-26-30-27-26-33-36-40-40-41-39-39-41]
---------------------------------------------------------------------------------------------------------
Image Image
42 48 03Foo FightersRun
[50-48-42]
---------------------------------------------------------------------------------------------------------
Image Image
43 41 05Liam PayneStrip That Down (Featuring Quavo)
[50-46-41-41-43]
----------------------------------------------------------------------------------------------------------
Image Image
44 37 03LordePerfect Places
[30-37-44]
---------------------------------------------------------------------------------------------------------
Image Image
45 38 13OneRepublicLet's Hurt Tonight
[28-17-11-8-7-9-11-14-18-23-31-38-45]
---------------------------------------------------------------------------------------------------------
Image Image
46 47 08IncubusNimble Bastard
[45-40-34-29-33-37-47-46]
----------------------------------------------------------------------------------------------------------
Image Image
47 42 16John MayerStill Feel Like Your Man
[40-36-34-33-33-29-26-24-22-23-25-32-37-40-42-47]
---------------------------------------------------------------------------------------------------------
Image Image
48 44 17Lana Del ReyLove
[3-4-5-10-14-18-13-13-16-19-21-23-27-32-38-44-48]
---------------------------------------------------------------------------------------------------------
Image Image
49 00 01StarleyTouch Me
[49]
---------------------------------------------------------------------------------------------------------
Image Image
50 45 16The WeekndReminder
[47-38-11-11-5-7-10-10-14-16-22-22-29-36-45-50]
---------------------------------------------------------------------------------------------------------
OUT
---------------------------------------------------------------------------------------------------------
49 18Imagine DragonsBeliever
[16-14-17-11-11-15-18-21-23-25-25-23-25-32-35-42-46-49]
---------------------------------------------------------------------------------------------------------
50 18Rag'n'Bone ManSkin
[36-30-19-14-9-12-13-15-17-20-17-17-22-26-34-39-45-50]
---------------------------------------------------------------------------------------------------------
User avatar
LittleArsonist
Personal Assistant
 
Posts: 845
Joined: Wed Jan 14, 2004

Postby LittleArsonist » Sat Jun 24, 2017 5:47 pm

cover
[TW] (WI)
artist
track title
[chartrun]
---------------------------------------------------------------------------------------------------------
50:иgѕ (25/52) - week ending June 25
---------------------------------------------------------------------------------------------------------

---------------------------------------------------------------------------------------------------------
Image Image
01 01 04Arcade FireEverything Now
[10-1-1-1]
---------------------------------------------------------------------------------------------------------
Image Image
02 02 02Roger WatersThe Last Refugee
[2-2]
---------------------------------------------------------------------------------------------------------
Image Image
03 03 14James BlakeMy Willing Heart
[48-45-35-30-19-16-15-11-14-18-20-24-3-3]
---------------------------------------------------------------------------------------------------------
Image Image
04 00 01Imagine DragonsWalking The Wire
[4]
---------------------------------------------------------------------------------------------------------
Image Image
05 04 03SiaFree Me
[3-4-5]
---------------------------------------------------------------------------------------------------------
Image Image
06 05 05Julia MichaelsIssues
[7-3-2-5-6]
---------------------------------------------------------------------------------------------------------
Image Image
07 11 07HaimWant You Back
[30-3-1-2-6-11-7]
---------------------------------------------------------------------------------------------------------
Image Image
08 09 03Liam GallagherWall Of Glass
[15-9-8]
---------------------------------------------------------------------------------------------------------
Image Image
09 14 11BanksCrowded Places
[46-45-39-33-24-19-16-14-11-14-9]
---------------------------------------------------------------------------------------------------------
Image Image
10 06 05SiaTo Be Human (Featuring Labrinth)
[2-1-4-6-10]
---------------------------------------------------------------------------------------------------------
Image Image
11 10 09TexasLet's Work It Out
[36-29-13-8-5-5-5-10-11]
---------------------------------------------------------------------------------------------------------
Image Image
12 08 08X AmbassadorsTorches
[37-29-21-19-11-8-8-12]
---------------------------------------------------------------------------------------------------------
Image Image
13 07 09Royal BloodLights Out
[1-1-1-2-4-6-9-7-13]
---------------------------------------------------------------------------------------------------------
Image Image
14 15 05Harry StylesSign Of The Times
[38-22-20-15-14]
---------------------------------------------------------------------------------------------------------
Image Image
15 17 09London GrammarOh Woman Oh Man
[27-20-15-12-12-13-13-17-15]
---------------------------------------------------------------------------------------------------------
Image Image
16 19 03KhalidYoung Dumb & Broke
[25-19-16]
---------------------------------------------------------------------------------------------------------
Image Image
17 12 10Lana Del ReyLust For Life (Featuring The Weeknd)
[38-30-4-2-1-3-4-7-12-17]
---------------------------------------------------------------------------------------------------------
Image Image
18 13 06MuseDig Down
[33-26-21-17-13-18]
---------------------------------------------------------------------------------------------------------
Image Image
19 00 11LordeLiability
[18-27-37-44-41-39-33-43-42-43 // 19]
---------------------------------------------------------------------------------------------------------
Image Image
20 30 06Imagine DragonsThunder
[41-40-35-30-30-20]
---------------------------------------------------------------------------------------------------------
Image Image
21 16 14Marian HillDown
[49-39-25-17-13-11-6-5-6-9-7-10-16-21]
---------------------------------------------------------------------------------------------------------
Image Image
22 21 09Alessia CaraThe Other Side
[42-39-38-31-28-23-21-21-22]
---------------------------------------------------------------------------------------------------------
Image Image
23 18 15First Aid KitYou Are The Problem Here
[49-39-34-27-15-9-6-3-3-4-6-9-14-18-23]
---------------------------------------------------------------------------------------------------------
Image Image
24 29 03Maggie LindemannPretty Girl
[43-29-24]
---------------------------------------------------------------------------------------------------------
Image Image
25 23 17LordeGreen Light
[2-1-4-3-3-2-1-2-4-8-8-10-15-18-26-23-25]
---------------------------------------------------------------------------------------------------------
Image Image
26 22 12Calvin HarrisHeatstroke (Featuring Young Thug, Pharrell Williams & Ariana Grande)
[50-40-31-28-24-18-17-13-12-16-22-26]
---------------------------------------------------------------------------------------------------------
Image Image
27 32 09Sheryl CrowHalfway There
[50-45-42-36-34-34-32-32-27]
----------------------------------------------------------------------------------------------------------
Image Image
28 39 03HalseyStrangers (Featuring Lauren Jauregui)
[46-39-28]
---------------------------------------------------------------------------------------------------------
Image Image
29 24 13ElbowGentle Storm
[41-32-24-15-12-12-10-11-14-16-18-24-29]
---------------------------------------------------------------------------------------------------------
Image Image
30 00 01The KillersThe Man
[30]
---------------------------------------------------------------------------------------------------------
Image Image
31 20 17Calvin HarrisSlide (Featuring Frank Ocean & Migos)
[50-48-44-30-10-3-3-1-2-2-4-5-8-8-12-20-31]
---------------------------------------------------------------------------------------------------------
Image Image
32 26 08Ed SheeranGalway Girl
[48-41-28-17-19-19-26-32]
---------------------------------------------------------------------------------------------------------
Image Image
33 28 06Lana Del ReyCoachella - Woodstock In My Mind
[39-35-28-27-28-33]
---------------------------------------------------------------------------------------------------------
Image Image
34 38 14London GrammarTruth Is A Beautiful Thing
[50-47-44-38-39-38-34-28-30-36-44-40-38-34]
----------------------------------------------------------------------------------------------------------
Image Image
35 44 04LordePerfect Places
[30-37-44-35]
---------------------------------------------------------------------------------------------------------
Image Image
36 25 16KhalidLocation
[44-32-19-13-8-7-5-3-5-7-9-10-15-22-25-36]
---------------------------------------------------------------------------------------------------------
Image Image
37 00 01ColdplayAll I Can Think About Is You
[37]
---------------------------------------------------------------------------------------------------------
Image Image
38 27 18Kings Of LeonReverend
[41-37-24-20-10-6-6-5-6-7-7-6-7-11-17-23-27-38]
---------------------------------------------------------------------------------------------------------
Image Image
39 36 17ColdplayHypnotised
[3-4-7-12-12-14-11-12-15-18-21-23-30-33-35-36-39]
---------------------------------------------------------------------------------------------------------
Image Image
40 31 17Bruno MarsThat's What I Like
[27-22-3-2-4-5-4-4-8-9-9-13-21-24-28-31-40]
---------------------------------------------------------------------------------------------------------
Image Image
41 35 18SiaHelium
[1-1-2-5-4-2-4-6-8-10-14-17-16-22-27-33-35-41]
---------------------------------------------------------------------------------------------------------
Image Image
42 34 12Kendrick LamarHUMBLE.
[48-42-34-20-13-12-15-20-25-29-34-42]
---------------------------------------------------------------------------------------------------------
Image Image
43 42 04Foo FightersRun
[50-48-42-43]
---------------------------------------------------------------------------------------------------------
Image Image
44 33 20London GrammarBig Picture
[8-4-6-7-7-9-5-7-12-12-14-18-19-20-26-25-32-34-33-44]
---------------------------------------------------------------------------------------------------------
Image Image
45 00 01KasabianBless This Acid House
[45]
---------------------------------------------------------------------------------------------------------
Image Image
46 41 15KasabianYou're In Love With A Psycho
[50-31-26-30-27-26-33-36-40-40-41-39-39-41-46]
---------------------------------------------------------------------------------------------------------
Image Image
47 00 01alt-JAdeline
[47]
---------------------------------------------------------------------------------------------------------
Image Image
48 37 19ElbowMagnificent (She Says)
[10-8-6-6-8-6-9-9-9-11-13-17-19-24-27-26-31-37-48]
---------------------------------------------------------------------------------------------------------
Image Image
49 00 01KodalineBrother
[49]
---------------------------------------------------------------------------------------------------------
Image Image
50 00 01Shania TwainLife's About To Get Good
[50]
---------------------------------------------------------------------------------------------------------
OUT
---------------------------------------------------------------------------------------------------------
40 09Lady GagaThe Cure
[40-34-32-27-25-24-29-36-40]
---------------------------------------------------------------------------------------------------------
43 05Liam PayneStrip That Down (Featuring Quavo)
[50-46-41-41-43]
---------------------------------------------------------------------------------------------------------
45 13OneRepublicLet's Hurt Tonight
[28-17-11-8-7-9-11-14-18-23-31-38-45]
---------------------------------------------------------------------------------------------------------
46 08IncubusNimble Bastard
[45-40-34-29-33-37-47-46]
----------------------------------------------------------------------------------------------------------
47 16John MayerStill Feel Like Your Man
[40-36-34-33-33-29-26-24-22-23-25-32-37-40-42-47]
---------------------------------------------------------------------------------------------------------
48 17Lana Del ReyLove
[3-4-5-10-14-18-13-13-16-19-21-23-27-32-38-44-48]
---------------------------------------------------------------------------------------------------------
49 01StarleyTouch Me
[49]
---------------------------------------------------------------------------------------------------------
50 16The WeekndReminder
[47-38-11-11-5-7-10-10-14-16-22-22-29-36-45-50]
---------------------------------------------------------------------------------------------------------
User avatar
LittleArsonist
Personal Assistant
 
Posts: 845
Joined: Wed Jan 14, 2004

Postby heppolo » Sat Jun 24, 2017 8:23 pm

49 00 01 • Kodaline • Brother
I was expecting to see this charting, the music video is very touching and the song is pleasant
30 00 01 • The Killers • The Man
It feels like something is missing in this song.
Waffles are checked cookies
User avatar
heppolo
Legend
 
Posts: 13466
Joined: Sun May 17, 2009
Location: interchangeable

Postby LittleArsonist » Wed Jul 05, 2017 2:50 pm

heppolo wrote:
49 00 01 • Kodaline • Brother
I was expecting to see this charting, the music video is very touching and the song is pleasant
30 00 01 • The Killers • The Man
It feels like something is missing in this song.
I expected more from Kodaline. Their first album was such a gem.

The Killers' song makes me happy... but same thing, their first material was completely another thing.
User avatar
LittleArsonist
Personal Assistant
 
Posts: 845
Joined: Wed Jan 14, 2004

Postby LittleArsonist » Wed Jul 05, 2017 3:34 pm

cover
[TW] (WI)
artist
track title
[chartrun]
---------------------------------------------------------------------------------------------------------
50:иgѕ (26/52) - week ending July 2
---------------------------------------------------------------------------------------------------------

---------------------------------------------------------------------------------------------------------
Image Image
01 04 02Imagine DragonsWalking The Wire
[4-1]
---------------------------------------------------------------------------------------------------------
Image Image
02 01 05Arcade FireEverything Now
[10-1-1-1-2]
----------------------------------------------------------------------------------------------------------
Image Image
03 35 05LordePerfect Places
[30-37-44-35-3]
---------------------------------------------------------------------------------------------------------
Image Image
04 03 15James BlakeMy Willing Heart
[48-45-35-30-19-16-15-11-14-18-20-24-3-3-4]
---------------------------------------------------------------------------------------------------------
Image Image
05 02 03Roger WatersThe Last Refugee
[2-2-5]
---------------------------------------------------------------------------------------------------------
Image Image
06 10 06SiaTo Be Human (Featuring Labrinth)
[2-1-4-6-10-6]
---------------------------------------------------------------------------------------------------------
Image Image
07 07 08HaimWant You Back
[30-3-1-2-6-11-7-7]
---------------------------------------------------------------------------------------------------------
Image Image
08 05 04SiaFree Me
[3-4-5-8]
---------------------------------------------------------------------------------------------------------
Image Image
09 09 12BanksCrowded Places
[46-45-39-33-24-19-16-14-11-14-9-9]
---------------------------------------------------------------------------------------------------------
Image Image
10 06 06Julia MichaelsIssues
[7-3-2-5-6-10]
---------------------------------------------------------------------------------------------------------
Image Image
11 13 10Royal BloodLights Out
[1-1-1-2-4-6-9-7-13-11]
---------------------------------------------------------------------------------------------------------
Image Image
12 08 04Liam GallagherWall Of Glass
[15-9-8-12]
---------------------------------------------------------------------------------------------------------
Image Image
13 16 04KhalidYoung Dumb & Broke
[25-19-16-13]
---------------------------------------------------------------------------------------------------------
Image Image
14 19 12LordeLiability
[18-27-37-44-41-39-33-43-42-43 // 19-14]
----------------------------------------------------------------------------------------------------------
Image Image
15 28 04HalseyStrangers (Featuring Lauren Jauregui)
[46-39-28-15]
---------------------------------------------------------------------------------------------------------
Image Image
16 14 06Harry StylesSign Of The Times
[38-22-20-15-14-16]
---------------------------------------------------------------------------------------------------------
Image Image
17 30 02The KillersThe Man
[30-17]
---------------------------------------------------------------------------------------------------------
Image Image
18 11 10TexasLet's Work It Out
[36-29-13-8-5-5-5-10-11-18]
---------------------------------------------------------------------------------------------------------
Image Image
19 15 10London GrammarOh Woman Oh Man
[27-20-15-12-12-13-13-17-15-19]
---------------------------------------------------------------------------------------------------------
Image Image
20 12 09X AmbassadorsTorches
[37-29-21-19-11-8-8-12-20]
---------------------------------------------------------------------------------------------------------
Image Image
21 20 07Imagine DragonsThunder
[41-40-35-30-30-20-21]
---------------------------------------------------------------------------------------------------------
Image Image
22 24 04Maggie LindemannPretty Girl
[43-29-24-22]
---------------------------------------------------------------------------------------------------------
Image Image
23 17 11Lana Del ReyLust For Life (Featuring The Weeknd)
[38-30-4-2-1-3-4-7-12-17-23]
---------------------------------------------------------------------------------------------------------
Image Image
24 27 10Sheryl CrowHalfway There
[50-45-42-36-34-34-32-32-27-24]
---------------------------------------------------------------------------------------------------------
Image Image
25 18 07MuseDig Down
[33-26-21-17-13-18-25]
---------------------------------------------------------------------------------------------------------
Image Image
26 21 15Marian HillDown
[49-39-25-17-13-11-6-5-6-9-7-10-16-21-26]
---------------------------------------------------------------------------------------------------------
Image Image
27 22 10Alessia CaraThe Other Side
[42-39-38-31-28-23-21-21-22-27]
---------------------------------------------------------------------------------------------------------
Image Image
28 37 02ColdplayAll I Can Think About Is You
[37-28]
---------------------------------------------------------------------------------------------------------
Image Image
29 26 13Calvin HarrisHeatstroke (Featuring Young Thug, Pharrell Williams & Ariana Grande)
[50-40-31-28-24-18-17-13-12-16-22-26-29]
---------------------------------------------------------------------------------------------------------
Image Image
30 23 16First Aid KitYou Are The Problem Here
[49-39-34-27-15-9-6-3-3-4-6-9-14-18-23-30]
---------------------------------------------------------------------------------------------------------
Image Image
31 25 18LordeGreen Light
[2-1-4-3-3-2-1-2-4-8-8-10-15-18-26-23-25-31]
---------------------------------------------------------------------------------------------------------
Image Image
32 34 15London GrammarTruth Is A Beautiful Thing
[50-47-44-38-39-38-34-28-30-36-44-40-38-34-32]
---------------------------------------------------------------------------------------------------------
Image Image
33 29 14ElbowGentle Storm
[41-32-24-15-12-12-10-11-14-16-18-24-29-33]
---------------------------------------------------------------------------------------------------------
Image Image
34 47 02alt-JAdeline
[47-34]
---------------------------------------------------------------------------------------------------------
Image Image
35 33 07Lana Del ReyCoachella - Woodstock In My Mind
[39-35-28-27-28-33-35]
---------------------------------------------------------------------------------------------------------
Image Image
36 00 01Calvin HarrisFeels (Featuring Pharrell Williams, Katy Perry & Big Sean)
[36]
---------------------------------------------------------------------------------------------------------
Image Image
37 31 18Calvin HarrisSlide (Featuring Frank Ocean & Migos)
[50-48-44-30-10-3-3-1-2-2-4-5-8-8-12-20-31-37]
---------------------------------------------------------------------------------------------------------
Image Image
38 45 02KasabianBless This Acid House
[45-38]
---------------------------------------------------------------------------------------------------------
Image Image
39 36 17KhalidLocation
[44-32-19-13-8-7-5-3-5-7-9-10-15-22-25-36-39]
---------------------------------------------------------------------------------------------------------
Image Image
40 32 09Ed SheeranGalway Girl
[48-41-28-17-19-19-26-32-40]
---------------------------------------------------------------------------------------------------------
Image Image
41 39 18ColdplayHypnotised
[3-4-7-12-12-14-11-12-15-18-21-23-30-33-35-36-39-41]
---------------------------------------------------------------------------------------------------------
Image Image
42 38 19Kings Of LeonReverend
[41-37-24-20-10-6-6-5-6-7-7-6-7-11-17-23-27-38-42]
---------------------------------------------------------------------------------------------------------
Image Image
43 49 02KodalineBrother
[49-43]
---------------------------------------------------------------------------------------------------------
Image Image
44 43 05Foo FightersRun
[50-48-42-43-44]
---------------------------------------------------------------------------------------------------------
Image Image
45 40 18Bruno MarsThat's What I Like
[27-22-3-2-4-5-4-4-8-9-9-13-21-24-28-31-40-45]
---------------------------------------------------------------------------------------------------------
Image Image
46 50 02Shania TwainLife's About To Get Good
[50-46]
---------------------------------------------------------------------------------------------------------
Image Image
47 41 19SiaHelium
[1-1-2-5-4-2-4-6-8-10-14-17-16-22-27-33-35-41-47]
---------------------------------------------------------------------------------------------------------
Image Image
48 00 01George EzraDon't Matter Now
[48]
---------------------------------------------------------------------------------------------------------
Image Image
49 42 13Kendrick LamarHUMBLE.
[48-42-34-20-13-12-15-20-25-29-34-42-49]
---------------------------------------------------------------------------------------------------------
Image Image
50 00 06Liam PayneStrip That Down (Featuring Quavo)
[50-46-41-41-43 // 50]
---------------------------------------------------------------------------------------------------------
OUT
---------------------------------------------------------------------------------------------------------
44 20London GrammarBig Picture
[8-4-6-7-7-9-5-7-12-12-14-18-19-20-26-25-32-34-33-44]
---------------------------------------------------------------------------------------------------------
46 15KasabianYou're In Love With A Psycho
[50-31-26-30-27-26-33-36-40-40-41-39-39-41-46]
---------------------------------------------------------------------------------------------------------
48 19ElbowMagnificent (She Says)
[10-8-6-6-8-6-9-9-9-11-13-17-19-24-27-26-31-37-48]
---------------------------------------------------------------------------------------------------------
User avatar
LittleArsonist
Personal Assistant
 
Posts: 845
Joined: Wed Jan 14, 2004

Postby heppolo » Wed Jul 05, 2017 5:02 pm

48 00 01 • George Ezra • Don't Matter Now
Not impressed by this at all
Waffles are checked cookies
User avatar
heppolo
Legend
 
Posts: 13466
Joined: Sun May 17, 2009
Location: interchangeable

Postby LittleArsonist » Sat Jul 08, 2017 5:05 pm

cover
[TW] (WI)
artist
track title
[chartrun]
---------------------------------------------------------------------------------------------------------
50:иgѕ (27/52) - week ending July 9
---------------------------------------------------------------------------------------------------------

---------------------------------------------------------------------------------------------------------
Image Image
01 00 01Portugal. The ManFeel It Still
[1]
---------------------------------------------------------------------------------------------------------
Image Image
02 02 06Arcade FireEverything Now
[10-1-1-1-2-2]
---------------------------------------------------------------------------------------------------------
Image Image
03 01 03Imagine DragonsWalking The Wire
[4-1-3]
----------------------------------------------------------------------------------------------------------
Image Image
04 03 06LordePerfect Places
[30-37-44-35-3-4]
---------------------------------------------------------------------------------------------------------
Image Image
05 05 04Roger WatersThe Last Refugee
[2-2-5-5]
---------------------------------------------------------------------------------------------------------
Image Image
06 00 01Arcade FireSigns Of Life
[6]
---------------------------------------------------------------------------------------------------------
Image Image
07 07 09HaimWant You Back
[30-3-1-2-6-11-7-7-7]
---------------------------------------------------------------------------------------------------------
Image Image
08 00 01ColdplayA L I E N S
[8]
---------------------------------------------------------------------------------------------------------
Image Image
09 08 05SiaFree Me
[3-4-5-8-9]
---------------------------------------------------------------------------------------------------------
Image Image
10 04 16James BlakeMy Willing Heart
[48-45-35-30-19-16-15-11-14-18-20-24-3-3-4-10]
---------------------------------------------------------------------------------------------------------
Image Image
11 12 05Liam GallagherWall Of Glass
[15-9-8-12-11]
---------------------------------------------------------------------------------------------------------
Image Image
12 14 13LordeLiability
[18-27-37-44-41-39-33-43-42-43 // 19-14-12]
---------------------------------------------------------------------------------------------------------
Image Image
13 06 07SiaTo Be Human (Featuring Labrinth)
[2-1-4-6-10-6-13]
---------------------------------------------------------------------------------------------------------
Image Image
14 10 07Julia MichaelsIssues
[7-3-2-5-6-10-14]
---------------------------------------------------------------------------------------------------------
Image Image
15 09 13BanksCrowded Places
[46-45-39-33-24-19-16-14-11-14-9-9-15]
---------------------------------------------------------------------------------------------------------
Image Image
16 17 03The KillersThe Man
[30-17-16]
----------------------------------------------------------------------------------------------------------
Image Image
17 15 05HalseyStrangers (Featuring Lauren Jauregui)
[46-39-28-15-17]
---------------------------------------------------------------------------------------------------------
Image Image
18 11 11Royal BloodLights Out
[1-1-1-2-4-6-9-7-13-11-18]
---------------------------------------------------------------------------------------------------------
Image Image
19 13 05KhalidYoung Dumb & Broke
[25-19-16-13-19]
---------------------------------------------------------------------------------------------------------
Image Image
20 16 07Harry StylesSign Of The Times
[38-22-20-15-14-16-20]
---------------------------------------------------------------------------------------------------------
Image Image
21 19 11London GrammarOh Woman Oh Man
[27-20-15-12-12-13-13-17-15-19-21]
---------------------------------------------------------------------------------------------------------
Image Image
22 18 11TexasLet's Work It Out
[36-29-13-8-5-5-5-10-11-18-22]
---------------------------------------------------------------------------------------------------------
Image Image
23 20 10X AmbassadorsTorches
[37-29-21-19-11-8-8-12-20-23]
---------------------------------------------------------------------------------------------------------
Image Image
24 28 03ColdplayAll I Can Think About Is You
[37-28-24]
---------------------------------------------------------------------------------------------------------
Image Image
25 22 05Maggie LindemannPretty Girl
[43-29-24-22-25]
---------------------------------------------------------------------------------------------------------
Image Image
26 23 12Lana Del ReyLust For Life (Featuring The Weeknd)
[38-30-4-2-1-3-4-7-12-17-23-26]
---------------------------------------------------------------------------------------------------------
Image Image
27 21 08Imagine DragonsThunder
[41-40-35-30-30-20-21-27]
---------------------------------------------------------------------------------------------------------
Image Image
28 00 01OneRepublicTruth To Power
[28]
---------------------------------------------------------------------------------------------------------
Image Image
29 24 11Sheryl CrowHalfway There
[50-45-42-36-34-34-32-32-27-24-29]
---------------------------------------------------------------------------------------------------------
Image Image
30 34 03alt-JAdeline
[47-34-30]
---------------------------------------------------------------------------------------------------------
Image Image
31 25 08MuseDig Down
[33-26-21-17-13-18-25-31]
---------------------------------------------------------------------------------------------------------
Image Image
32 36 02Calvin HarrisFeels (Featuring Pharrell Williams, Katy Perry & Big Sean)
[36-32]
---------------------------------------------------------------------------------------------------------
Image Image
33 29 14Calvin HarrisHeatstroke (Featuring Young Thug, Pharrell Williams & Ariana Grande)
[50-40-31-28-24-18-17-13-12-16-22-26-29-33]
---------------------------------------------------------------------------------------------------------
Image Image
34 26 16Marian HillDown
[49-39-25-17-13-11-6-5-6-9-7-10-16-21-26-34]
---------------------------------------------------------------------------------------------------------
Image Image
35 27 11Alessia CaraThe Other Side
[42-39-38-31-28-23-21-21-22-27-35]
---------------------------------------------------------------------------------------------------------
Image Image
36 32 16London GrammarTruth Is A Beautiful Thing
[50-47-44-38-39-38-34-28-30-36-44-40-38-34-32-36]
---------------------------------------------------------------------------------------------------------
Image Image
37 38 03KasabianBless This Acid House
[45-38-37]
---------------------------------------------------------------------------------------------------------
Image Image
38 30 17First Aid KitYou Are The Problem Here
[49-39-34-27-15-9-6-3-3-4-6-9-14-18-23-30-38]
---------------------------------------------------------------------------------------------------------
Image Image
39 43 03KodalineBrother
[49-43-39]
---------------------------------------------------------------------------------------------------------
Image Image
40 33 15ElbowGentle Storm
[41-32-24-15-12-12-10-11-14-16-18-24-29-33-40]
---------------------------------------------------------------------------------------------------------
Image Image
41 31 19LordeGreen Light
[2-1-4-3-3-2-1-2-4-8-8-10-15-18-26-23-25-31-41]
---------------------------------------------------------------------------------------------------------
Image Image
42 50 07Liam PayneStrip That Down (Featuring Quavo)
[50-46-41-41-43 // 50-42]
---------------------------------------------------------------------------------------------------------
Image Image
43 46 03Shania TwainLife's About To Get Good
[50-46-43]
---------------------------------------------------------------------------------------------------------
Image Image
44 35 08Lana Del ReyCoachella - Woodstock In My Mind
[39-35-28-27-28-33-35-44]
---------------------------------------------------------------------------------------------------------
Image Image
45 37 19Calvin HarrisSlide (Featuring Frank Ocean & Migos)
[50-48-44-30-10-3-3-1-2-2-4-5-8-8-12-20-31-37-45]
---------------------------------------------------------------------------------------------------------
Image Image
46 48 02George EzraDon't Matter Now
[48-46]
---------------------------------------------------------------------------------------------------------
Image Image
47 40 10Ed SheeranGalway Girl
[48-41-28-17-19-19-26-32-40-47]
---------------------------------------------------------------------------------------------------------
Image Image
48 00 01KeshaPraying
[48]
---------------------------------------------------------------------------------------------------------
Image Image
49 39 18KhalidLocation
[44-32-19-13-8-7-5-3-5-7-9-10-15-22-25-36-39-49]
---------------------------------------------------------------------------------------------------------
Image Image
50 47 20SiaHelium
[1-1-2-5-4-2-4-6-8-10-14-17-16-22-27-33-35-41-47-50]
---------------------------------------------------------------------------------------------------------
OUT
---------------------------------------------------------------------------------------------------------
41 18ColdplayHypnotised
[3-4-7-12-12-14-11-12-15-18-21-23-30-33-35-36-39-41]
---------------------------------------------------------------------------------------------------------
42 19Kings Of LeonReverend
[41-37-24-20-10-6-6-5-6-7-7-6-7-11-17-23-27-38-42]
---------------------------------------------------------------------------------------------------------
44 05Foo FightersRun
[50-48-42-43-44]
---------------------------------------------------------------------------------------------------------
45 18Bruno MarsThat's What I Like
[27-22-3-2-4-5-4-4-8-9-9-13-21-24-28-31-40-45]
---------------------------------------------------------------------------------------------------------
49 13Kendrick LamarHUMBLE.
[48-42-34-20-13-12-15-20-25-29-34-42-49]
---------------------------------------------------------------------------------------------------------
User avatar
LittleArsonist
Personal Assistant
 
Posts: 845
Joined: Wed Jan 14, 2004

Postby heppolo » Sat Jul 08, 2017 5:40 pm

01 00 01 • Portugal. The Man • Feel It Still
It's a bit unexpected to see this topping the chart
Waffles are checked cookies
User avatar
heppolo
Legend
 
Posts: 13466
Joined: Sun May 17, 2009
Location: interchangeable

Postby JakeP » Sat Jul 08, 2017 6:34 pm

heppolo wrote:
01 00 01 • Portugal. The Man • Feel It Still
It's a bit unexpected to see this topping the chart
I know the song is doing well in Marat's top 20. Gave the track a listen earlier and i think its great.

Other highlights:

08 00 01 • Coldplay • A L I E N S
24 28 03 • Coldplay • All I Can Think About Is You

Love the video for A L I E N S although i prefer All i can think about is you more.

28 00 01 • OneRepublic • Truth To Power

Looking set to enter my new chart but fairly low down the list.

32 36 02 • Calvin Harris • Feels (Featuring Pharrell Williams, Katy Perry & Big Sean)

Loving Feels so much at the moment. Happy that its looking set to be Calvin's most successful track from his latest album.

39 43 03 • Kodaline • Brother

A top 5 entry for me last week. One of the most emotional music videos i've seen so far this year.

48 00 01 • Kesha • Praying

Such a powerful return, not expecting this to be a chart hit. It's clearly not tropical enough! :lol: Kesha delivered some powerful vocals on the Zedd track Colors last year but this is in a whole different league.

Other favourites in this chart:

04 03 06 • Lorde • Perfect Places
07 07 09 • Haim • Want You Back
09 08 05 • Sia • Free Me
11 12 05 • Liam Gallagher • Wall Of Glass
12 14 13 • Lorde • Liability
13 06 07 • Sia • To Be Human (Featuring Labrinth)
14 10 07 • Julia Michaels • Issues
16 17 03 • The Killers • The Man
18 11 11 • Royal Blood • Lights Out
20 16 07 • Harry Styles • Sign Of The Times
21 19 11 • London Grammar • Oh Woman Oh Man
25 22 05 • Maggie Lindemann • Pretty Girl
26 23 12 • Lana Del Rey • Lust For Life (Featuring The Weeknd)
27 21 08 • Imagine Dragons • Thunder
31 25 08 • Muse • Dig Down
36 32 16 • London Grammar • Truth Is A Beautiful Thing
41 31 19 • Lorde • Green Light
43 46 03 • Shania Twain • Life's About To Get Good
44 35 08 • Lana Del Rey • Coachella - Woodstock In My Mind
45 37 19 • Calvin Harris • Slide (Featuring Frank Ocean & Migos)
46 48 02 • George Ezra • Don't Matter Now
47 40 10 • Ed Sheeran • Galway Girl
50 47 20 • Sia • Helium
User avatar
JakeP
Manager
 
Posts: 3158
Joined: Mon Aug 19, 2013

Postby LittleArsonist » Thu Jul 13, 2017 4:16 pm

JakeP wrote:
heppolo wrote:
01 00 01 • Portugal. The Man • Feel It Still
It's a bit unexpected to see this topping the chart
I know the song is doing well in Marat's top 20. Gave the track a listen earlier and i think its great.

Other highlights:

08 00 01 • Coldplay • A L I E N S
24 28 03 • Coldplay • All I Can Think About Is You

Love the video for A L I E N S although i prefer All i can think about is you more.

28 00 01 • OneRepublic • Truth To Power

Looking set to enter my new chart but fairly low down the list.

32 36 02 • Calvin Harris • Feels (Featuring Pharrell Williams, Katy Perry & Big Sean)

Loving Feels so much at the moment. Happy that its looking set to be Calvin's most successful track from his latest album.

39 43 03 • Kodaline • Brother

A top 5 entry for me last week. One of the most emotional music videos i've seen so far this year.

48 00 01 • Kesha • Praying

Such a powerful return, not expecting this to be a chart hit. It's clearly not tropical enough! :lol: Kesha delivered some powerful vocals on the Zedd track Colors last year but this is in a whole different league.

Other favourites in this chart:

04 03 06 • Lorde • Perfect Places
07 07 09 • Haim • Want You Back
09 08 05 • Sia • Free Me
11 12 05 • Liam Gallagher • Wall Of Glass
12 14 13 • Lorde • Liability
13 06 07 • Sia • To Be Human (Featuring Labrinth)
14 10 07 • Julia Michaels • Issues
16 17 03 • The Killers • The Man
18 11 11 • Royal Blood • Lights Out
20 16 07 • Harry Styles • Sign Of The Times
21 19 11 • London Grammar • Oh Woman Oh Man
25 22 05 • Maggie Lindemann • Pretty Girl
26 23 12 • Lana Del Rey • Lust For Life (Featuring The Weeknd)
27 21 08 • Imagine Dragons • Thunder
31 25 08 • Muse • Dig Down
36 32 16 • London Grammar • Truth Is A Beautiful Thing
41 31 19 • Lorde • Green Light
43 46 03 • Shania Twain • Life's About To Get Good
44 35 08 • Lana Del Rey • Coachella - Woodstock In My Mind
45 37 19 • Calvin Harris • Slide (Featuring Frank Ocean & Migos)
46 48 02 • George Ezra • Don't Matter Now
47 40 10 • Ed Sheeran • Galway Girl
50 47 20 • Sia • Helium
I'd say a good overall :) thanks for checking mate 8-)
User avatar
LittleArsonist
Personal Assistant
 
Posts: 845
Joined: Wed Jan 14, 2004

Postby LittleArsonist » Thu Jul 13, 2017 4:16 pm

heppolo wrote:
01 00 01 • Portugal. The Man • Feel It Still
It's a bit unexpected to see this topping the chart
ahahah

you know when you listen to a song and you love it at first listening?

yep, that :o
User avatar
LittleArsonist
Personal Assistant
 
Posts: 845
Joined: Wed Jan 14, 2004

Postby LittleArsonist » Sun Jul 16, 2017 9:47 pm

cover
[TW] (WI)
artist
track title
[chartrun]
---------------------------------------------------------------------------------------------------------
50:иgѕ (28/52) - week ending July 16
---------------------------------------------------------------------------------------------------------

---------------------------------------------------------------------------------------------------------
Image Image
01 01 02Portugal. The ManFeel It Still
[1-1]
---------------------------------------------------------------------------------------------------------
Image Image
02 03 04Imagine DragonsWalking The Wire
[4-1-3-2]
---------------------------------------------------------------------------------------------------------
Image Image
03 08 02ColdplayA L I E N S
[8-3]
---------------------------------------------------------------------------------------------------------
Image Image
04 02 07Arcade FireEverything Now
[10-1-1-1-2-2-4]
----------------------------------------------------------------------------------------------------------
Image Image
05 04 07LordePerfect Places
[30-37-44-35-3-4-5]
---------------------------------------------------------------------------------------------------------
Image Image
06 06 02Arcade FireSigns Of Life
[6-6]
---------------------------------------------------------------------------------------------------------
Image Image
07 07 10HaimWant You Back
[30-3-1-2-6-11-7-7-7-7]
---------------------------------------------------------------------------------------------------------
Image Image
08 12 14LordeLiability
[18-27-37-44-41-39-33-43-42-43 // 19-14-12-8]
---------------------------------------------------------------------------------------------------------
Image Image
09 05 05Roger WatersThe Last Refugee
[2-2-5-5-9]
---------------------------------------------------------------------------------------------------------
Image Image
10 16 04The KillersThe Man
[30-17-16-10]
---------------------------------------------------------------------------------------------------------
Image Image
11 09 06SiaFree Me
[3-4-5-8-9-11]
---------------------------------------------------------------------------------------------------------
Image Image
12 14 08Julia MichaelsIssues
[7-3-2-5-6-10-14-12]
---------------------------------------------------------------------------------------------------------
Image Image
13 19 06KhalidYoung Dumb & Broke
[25-19-16-13-19-13]
---------------------------------------------------------------------------------------------------------
Image Image
14 11 06Liam GallagherWall Of Glass
[15-9-8-12-11-14]
---------------------------------------------------------------------------------------------------------
Image Image
15 10 17James BlakeMy Willing Heart
[48-45-35-30-19-16-15-11-14-18-20-24-3-3-4-10-15]
---------------------------------------------------------------------------------------------------------
Image Image
16 13 08SiaTo Be Human (Featuring Labrinth)
[2-1-4-6-10-6-13-16]
---------------------------------------------------------------------------------------------------------
Image Image
17 15 14BanksCrowded Places
[46-45-39-33-24-19-16-14-11-14-9-9-15-17]
----------------------------------------------------------------------------------------------------------
Image Image
18 17 06HalseyStrangers (Featuring Lauren Jauregui)
[46-39-28-15-17-18]
---------------------------------------------------------------------------------------------------------
Image Image
19 28 02OneRepublicTruth To Power
[28-19]
---------------------------------------------------------------------------------------------------------
Image Image
20 21 12London GrammarOh Woman Oh Man
[27-20-15-12-12-13-13-17-15-19-21-20]
---------------------------------------------------------------------------------------------------------
Image Image
21 18 12Royal BloodLights Out
[1-1-1-2-4-6-9-7-13-11-18-21]
---------------------------------------------------------------------------------------------------------
Image Image
22 32 03Calvin HarrisFeels (Featuring Pharrell Williams, Katy Perry & Big Sean)
[36-32-22]
---------------------------------------------------------------------------------------------------------
Image Image
23 20 08Harry StylesSign Of The Times
[38-22-20-15-14-16-20-23]
---------------------------------------------------------------------------------------------------------
Image Image
24 24 04ColdplayAll I Can Think About Is You
[37-28-24-24]
---------------------------------------------------------------------------------------------------------
Image Image
25 00 01Royal BloodI Only Lie When I Love You
[25]
---------------------------------------------------------------------------------------------------------
Image Image
26 22 12TexasLet's Work It Out
[36-29-13-8-5-5-5-10-11-18-22-26]
---------------------------------------------------------------------------------------------------------
Image Image
27 30 04alt-JAdeline
[47-34-30-27]
---------------------------------------------------------------------------------------------------------
Image Image
28 26 13Lana Del ReyLust For Life (Featuring The Weeknd)
[38-30-4-2-1-3-4-7-12-17-23-26-28]
---------------------------------------------------------------------------------------------------------
Image Image
29 23 11X AmbassadorsTorches
[37-29-21-19-11-8-8-12-20-23-29]
---------------------------------------------------------------------------------------------------------
Image Image
30 27 09Imagine DragonsThunder
[41-40-35-30-30-20-21-27-30]
---------------------------------------------------------------------------------------------------------
Image Image
31 39 04KodalineBrother
[49-43-39-31]
---------------------------------------------------------------------------------------------------------
Image Image
32 25 06Maggie LindemannPretty Girl
[43-29-24-22-25-32]
---------------------------------------------------------------------------------------------------------
Image Image
33 37 04KasabianBless This Acid House
[45-38-37-33]
---------------------------------------------------------------------------------------------------------
Image Image
34 36 17London GrammarTruth Is A Beautiful Thing
[50-47-44-38-39-38-34-28-30-36-44-40-38-34-32-36-34]
---------------------------------------------------------------------------------------------------------
Image Image
35 29 12Sheryl CrowHalfway There
[50-45-42-36-34-34-32-32-27-24-29-35]
---------------------------------------------------------------------------------------------------------
Image Image
36 35 12Alessia CaraThe Other Side
[42-39-38-31-28-23-21-21-22-27-35-36]
---------------------------------------------------------------------------------------------------------
Image Image
37 31 09MuseDig Down
[33-26-21-17-13-18-25-31-37]
---------------------------------------------------------------------------------------------------------
Image Image
38 00 01Lana Del ReyGroupie Love (Featuring A$AP Rocky)
[38]
---------------------------------------------------------------------------------------------------------
Image Image
39 00 01Lana Del ReySummer Bummer (Featuring A$AP Rocky & Playboy Carti)
[39]
---------------------------------------------------------------------------------------------------------
Image Image
40 48 02KeshaPraying
[48-40]
---------------------------------------------------------------------------------------------------------
Image Image
41 34 17Marian HillDown
[49-39-25-17-13-11-6-5-6-9-7-10-16-21-26-34-41]
---------------------------------------------------------------------------------------------------------
Image Image
42 00 01Depeche ModeGoing Backwards
[42]
---------------------------------------------------------------------------------------------------------
Image Image
43 33 15Calvin HarrisHeatstroke (Featuring Young Thug, Pharrell Williams & Ariana Grande)
[50-40-31-28-24-18-17-13-12-16-22-26-29-33-43]
---------------------------------------------------------------------------------------------------------
Image Image
44 44 09Lana Del ReyCoachella - Woodstock In My Mind
[39-35-28-27-28-33-35-44-44]
---------------------------------------------------------------------------------------------------------
Image Image
45 40 16ElbowGentle Storm
[41-32-24-15-12-12-10-11-14-16-18-24-29-33-40-45]
---------------------------------------------------------------------------------------------------------
Image Image
46 43 04Shania TwainLife's About To Get Good
[50-46-43-46]
---------------------------------------------------------------------------------------------------------
Image Image
47 38 18First Aid KitYou Are The Problem Here
[49-39-34-27-15-9-6-3-3-4-6-9-14-18-23-30-38-47]
---------------------------------------------------------------------------------------------------------
Image Image
48 41 20LordeGreen Light
[2-1-4-3-3-2-1-2-4-8-8-10-15-18-26-23-25-31-41-48]
---------------------------------------------------------------------------------------------------------
Image Image
49 00 01Jay-Z4:44
[49]
---------------------------------------------------------------------------------------------------------
Image Image
50 45 20Calvin HarrisSlide (Featuring Frank Ocean & Migos)
[50-48-44-30-10-3-3-1-2-2-4-5-8-8-12-20-31-37-45-50]
---------------------------------------------------------------------------------------------------------
OUT
---------------------------------------------------------------------------------------------------------
42 07Liam PayneStrip That Down (Featuring Quavo)
[50-46-41-41-43 // 50-42]
---------------------------------------------------------------------------------------------------------
46 02George EzraDon't Matter Now
[48-46]
---------------------------------------------------------------------------------------------------------
47 10Ed SheeranGalway Girl
[48-41-28-17-19-19-26-32-40-47]
---------------------------------------------------------------------------------------------------------
49 18KhalidLocation
[44-32-19-13-8-7-5-3-5-7-9-10-15-22-25-36-39-49]
---------------------------------------------------------------------------------------------------------
50 20SiaHelium
[1-1-2-5-4-2-4-6-8-10-14-17-16-22-27-33-35-41-47-50]
---------------------------------------------------------------------------------------------------------
User avatar
LittleArsonist
Personal Assistant
 
Posts: 845
Joined: Wed Jan 14, 2004

Postby heppolo » Mon Jul 17, 2017 11:30 am

42 00 01 • Depeche Mode • Going Backwards
Strangely I find this one to be the best out of all your new entries this week.
Waffles are checked cookies
User avatar
heppolo
Legend
 
Posts: 13466
Joined: Sun May 17, 2009
Location: interchangeable

Postby LittleArsonist » Fri Jul 21, 2017 11:45 am

TW LW WI
artist
track title
[chartrun]
----------------------------------------------------------------------------------------------------------------------------------
50:иgѕ (29/52) - week ending July 23
----------------------------------------------------------------------------------------------------------------------------------

----------------------------------------------------------------------------------------------------------------------------------
01 01 03
Portugal. The Man
Feel It Still
[1-1-1]
----------------------------------------------------------------------------------------------------------------------------------
02 02 05
Imagine Dragons
Walking The Wire
[4-1-3-2-2]
----------------------------------------------------------------------------------------------------------------------------------
03 04 08
Arcade Fire
Everything Now
[10-1-1-1-2-2-4-3]
----------------------------------------------------------------------------------------------------------------------------------
04 06 03
Arcade Fire
Signs Of Life
[6-6-4]
----------------------------------------------------------------------------------------------------------------------------------
05 05 08
Lorde
Perfect Places
[30-37-44-35-3-4-5-5]
----------------------------------------------------------------------------------------------------------------------------------
06 03 03
Coldplay
A L I E N S
[8-3-6]
----------------------------------------------------------------------------------------------------------------------------------
07 10 05
The Killers
The Man
[30-17-16-10-7]
----------------------------------------------------------------------------------------------------------------------------------
08 22 04
Calvin Harris
Feels (Featuring Pharrell Williams, Katy Perry & Big Sean)
[36-32-22-8]
----------------------------------------------------------------------------------------------------------------------------------
09 08 15
Lorde
Liability
[18-27-37-44-41-39-33-43-42-43 // 19-14-12-8-9]
----------------------------------------------------------------------------------------------------------------------------------
10 09 06
Roger Waters
The Last Refugee
[2-2-5-5-9-10]
----------------------------------------------------------------------------------------------------------------------------------
11 07 11
Haim
Want You Back
[30-3-1-2-6-11-7-7-7-7-11]
----------------------------------------------------------------------------------------------------------------------------------
12 12 09
Julia Michaels
Issues
[7-3-2-5-6-10-14-12-12]
----------------------------------------------------------------------------------------------------------------------------------
13 11 07
Sia
Free Me
[3-4-5-8-9-11-13]
----------------------------------------------------------------------------------------------------------------------------------
14 00 01
Bruno Mars vs David Guetta
Versace On The Floor
[14]
----------------------------------------------------------------------------------------------------------------------------------
15 20 13
London Grammar
Oh Woman Oh Man
[27-20-15-12-12-13-13-17-15-19-21-20-15]
----------------------------------------------------------------------------------------------------------------------------------
16 13 07
Khalid
Young Dumb & Broke
[25-19-16-13-19-13-16]
----------------------------------------------------------------------------------------------------------------------------------
17 19 03
OneRepublic
Truth To Power
[28-19-17]
----------------------------------------------------------------------------------------------------------------------------------
18 25 02
Royal Blood
I Only Lie When I Love You
[25-18]
----------------------------------------------------------------------------------------------------------------------------------
19 14 07
Liam Gallagher
Wall Of Glass
[15-9-8-12-11-14-19]
----------------------------------------------------------------------------------------------------------------------------------
20 18 07
Halsey
Strangers (Featuring Lauren Jauregui)
[46-39-28-15-17-18-20]
----------------------------------------------------------------------------------------------------------------------------------
21 28 14
Lana Del Rey
Lust For Life (Featuring The Weeknd)
[38-30-4-2-1-3-4-7-12-17-23-26-28-21]
----------------------------------------------------------------------------------------------------------------------------------
22 16 09
Sia
To Be Human (Featuring Labrinth)
[2-1-4-6-10-6-13-16-22]
----------------------------------------------------------------------------------------------------------------------------------
23 21 13
Royal Blood
Lights Out
[1-1-1-2-4-6-9-7-13-11-18-21-23]
----------------------------------------------------------------------------------------------------------------------------------
24 17 15
Banks
Crowded Places
[46-45-39-33-24-19-16-14-11-14-9-9-15-17-24]
----------------------------------------------------------------------------------------------------------------------------------
25 15 18
James Blake
My Willing Heart
[48-45-35-30-19-16-15-11-14-18-20-24-3-3-4-10-15-25]
----------------------------------------------------------------------------------------------------------------------------------
26 23 09
Harry Styles
Sign Of The Times
[38-22-20-15-14-16-20-23-26]
----------------------------------------------------------------------------------------------------------------------------------
27 26 13
Texas
Let's Work It Out
[36-29-13-8-5-5-5-10-11-18-22-26-27]
----------------------------------------------------------------------------------------------------------------------------------
28 24 05
Coldplay
All I Can Think About Is You
[37-28-24-24-28]
----------------------------------------------------------------------------------------------------------------------------------
29 27 05
alt-J
Adeline
[47-34-30-27-29]
----------------------------------------------------------------------------------------------------------------------------------
30 31 05
Kodaline
Brother
[49-43-39-31-30]
----------------------------------------------------------------------------------------------------------------------------------
31 33 05
Kasabian
Bless This Acid House
[45-38-37-33-31]
----------------------------------------------------------------------------------------------------------------------------------
32 42 02
Depeche Mode
Going Backwards
[42-32]
----------------------------------------------------------------------------------------------------------------------------------
33 30 10
Imagine Dragons
Thunder
[41-40-35-30-30-20-21-27-30-33]
----------------------------------------------------------------------------------------------------------------------------------
34 39 02
Lana Del Rey
Summer Bummer (Featuring A$AP Rocky & Playboy Carti)
[39-34]
----------------------------------------------------------------------------------------------------------------------------------
35 38 02
Lana Del Rey
Groupie Love (Featuring A$AP Rocky)
[38-35]
----------------------------------------------------------------------------------------------------------------------------------
36 34 18
London Grammar
Truth Is A Beautiful Thing
[50-47-44-38-39-38-34-28-30-36-44-40-38-34-32-36-34-36]
----------------------------------------------------------------------------------------------------------------------------------
37 29 12
X Ambassadors
Torches
[37-29-21-19-11-8-8-12-20-23-29-37]
----------------------------------------------------------------------------------------------------------------------------------
38 40 03
Kesha
Praying
[48-40-38]
----------------------------------------------------------------------------------------------------------------------------------
39 35 13
Sheryl Crow
Halfway There
[50-45-42-36-34-34-32-32-27-24-29-35-39]
----------------------------------------------------------------------------------------------------------------------------------
40 46 05
Shania Twain
Life's About To Get Good
[50-46-43-46-40]
----------------------------------------------------------------------------------------------------------------------------------
41 44 10
Lana Del Rey
Coachella - Woodstock In My Mind
[39-35-28-27-28-33-35-44-44-41]
----------------------------------------------------------------------------------------------------------------------------------
42 36 13
Alessia Cara
The Other Side
[42-39-38-31-28-23-21-21-22-27-35-36-42]
----------------------------------------------------------------------------------------------------------------------------------
43 32 07
Maggie Lindemann
Pretty Girl
[43-29-24-22-25-32-43]
----------------------------------------------------------------------------------------------------------------------------------
44 37 10
Muse
Dig Down
[33-26-21-17-13-18-25-31-37-44]
----------------------------------------------------------------------------------------------------------------------------------
45 45 17
Elbow
Gentle Storm
[41-32-24-15-12-12-10-11-14-16-18-24-29-33-40-45-45]
----------------------------------------------------------------------------------------------------------------------------------
46 43 16
Calvin Harris
Heatstroke (Featuring Young Thug, Pharrell Williams & Ariana Grande)
[50-40-31-28-24-18-17-13-12-16-22-26-29-33-43-46]
----------------------------------------------------------------------------------------------------------------------------------
47 49 02
Jay-Z
4:44
[49-47]
----------------------------------------------------------------------------------------------------------------------------------
48 41 18
Marian Hill
Down
[49-39-25-17-13-11-6-5-6-9-7-10-16-21-26-34-41-48]
----------------------------------------------------------------------------------------------------------------------------------
49 00 01
SZA
Love Galore (Featuring Travi$ Scott)
[49]
----------------------------------------------------------------------------------------------------------------------------------
50 47 19
First Aid Kit
You Are The Problem Here
[49-39-34-27-15-9-6-3-3-4-6-9-14-18-23-30-38-47-50]
----------------------------------------------------------------------------------------------------------------------------------
OUT
----------------------------------------------------------------------------------------------------------------------------------
48 20
Lorde
Green Light
[2-1-4-3-3-2-1-2-4-8-8-10-15-18-26-23-25-31-41-48]
----------------------------------------------------------------------------------------------------------------------------------
50 20
Calvin Harris
Slide (Featuring Frank Ocean & Migos)
[50-48-44-30-10-3-3-1-2-2-4-5-8-8-12-20-31-37-45-50]
----------------------------------------------------------------------------------------------------------------------------------
Last edited by LittleArsonist on Sat Jul 29, 2017 8:55 am, edited 1 time in total.
User avatar
LittleArsonist
Personal Assistant
 
Posts: 845
Joined: Wed Jan 14, 2004

Postby LittleArsonist » Sat Jul 29, 2017 8:51 am

TW LW WI
artist
track title
[chartrun]
----------------------------------------------------------------------------------------------------------------------------------
50:иgѕ (30/52) - week ending July 30
----------------------------------------------------------------------------------------------------------------------------------

----------------------------------------------------------------------------------------------------------------------------------
01 03 09
Arcade Fire
Everything Now
[10-1-1-1-2-2-4-3-1]
----------------------------------------------------------------------------------------------------------------------------------
02 01 04
Portugal. The Man
Feel It Still
[1-1-1-2]
----------------------------------------------------------------------------------------------------------------------------------
03 04 04
Arcade Fire
Signs Of Life
[6-6-4-3]
----------------------------------------------------------------------------------------------------------------------------------
04 07 06
The Killers
The Man
[30-17-16-10-7-4]
----------------------------------------------------------------------------------------------------------------------------------
05 02 06
Imagine Dragons
Walking The Wire
[4-1-3-2-2-5]
----------------------------------------------------------------------------------------------------------------------------------
06 08 05
Calvin Harris
Feels (Featuring Pharrell Williams, Katy Perry & Big Sean)
[36-32-22-8-6]
----------------------------------------------------------------------------------------------------------------------------------
07 05 09
Lorde
Perfect Places
[30-37-44-35-3-4-5-5-7]
----------------------------------------------------------------------------------------------------------------------------------
08 14 02
Bruno Mars vs David Guetta
Versace On The Floor
[14-8]
----------------------------------------------------------------------------------------------------------------------------------
09 06 04
Coldplay
A L I E N S
[8-3-6-9]
----------------------------------------------------------------------------------------------------------------------------------
10 15 14
London Grammar
Oh Woman Oh Man
[27-20-15-12-12-13-13-17-15-19-21-20-15-10]
----------------------------------------------------------------------------------------------------------------------------------
11 10 07
Roger Waters
The Last Refugee
[2-2-5-5-9-10-11]
----------------------------------------------------------------------------------------------------------------------------------
12 17 04
OneRepublic
Truth To Power
[28-19-17-12]
----------------------------------------------------------------------------------------------------------------------------------
13 13 08
Sia
Free Me
[3-4-5-8-9-11-13-13]
----------------------------------------------------------------------------------------------------------------------------------
14 21 15
Lana Del Rey
Lust For Life (Featuring The Weeknd)
[38-30-4-2-1-3-4-7-12-17-23-26-28-21-14]
----------------------------------------------------------------------------------------------------------------------------------
15 18 03
Royal Blood
I Only Lie When I Love You
[25-18-15]
----------------------------------------------------------------------------------------------------------------------------------
16 09 16
Lorde
Liability
[18-27-37-44-41-39-33-43-42-43 // 19-14-12-8-9-16]
----------------------------------------------------------------------------------------------------------------------------------
17 12 10
Julia Michaels
Issues
[7-3-2-5-6-10-14-12-12-17]
----------------------------------------------------------------------------------------------------------------------------------
18 11 12
Haim
Want You Back
[30-3-1-2-6-11-7-7-7-7-11-18]
----------------------------------------------------------------------------------------------------------------------------------
19 35 03
Lana Del Rey
Groupie Love (Featuring A$AP Rocky)
[38-35-19]
----------------------------------------------------------------------------------------------------------------------------------
20 00 01
The Killers
Run For Cover
[20]
----------------------------------------------------------------------------------------------------------------------------------
21 00 01
Shania Twain
Poor Me
[21]
----------------------------------------------------------------------------------------------------------------------------------
22 19 08
Liam Gallagher
Wall Of Glass
[15-9-8-12-11-14-19-22]
----------------------------------------------------------------------------------------------------------------------------------
23 16 08
Khalid
Young Dumb & Broke
[25-19-16-13-19-13-16-23]
----------------------------------------------------------------------------------------------------------------------------------
24 32 03
Depeche Mode
Going Backwards
[42-32-24]
----------------------------------------------------------------------------------------------------------------------------------
25 20 08
Halsey
Strangers (Featuring Lauren Jauregui)
[46-39-28-15-17-18-20-25]
----------------------------------------------------------------------------------------------------------------------------------
26 34 03
Lana Del Rey
Summer Bummer (Featuring A$AP Rocky & Playboy Carti)
[39-34-26]
----------------------------------------------------------------------------------------------------------------------------------
27 23 14
Royal Blood
Lights Out
[1-1-1-2-4-6-9-7-13-11-18-21-23-27]
----------------------------------------------------------------------------------------------------------------------------------
28 22 10
Sia
To Be Human (Featuring Labrinth)
[2-1-4-6-10-6-13-16-22-28]
----------------------------------------------------------------------------------------------------------------------------------
29 27 14
Texas
Let's Work It Out
[36-29-13-8-5-5-5-10-11-18-22-26-27-29]
----------------------------------------------------------------------------------------------------------------------------------
30 26 10
Harry Styles
Sign Of The Times
[38-22-20-15-14-16-20-23-26-30]
----------------------------------------------------------------------------------------------------------------------------------
31 31 06
Kasabian
Bless This Acid House
[45-38-37-33-31-31]
----------------------------------------------------------------------------------------------------------------------------------
32 29 06
alt-J
Adeline
[47-34-30-27-29-32]
----------------------------------------------------------------------------------------------------------------------------------
33 28 06
Coldplay
All I Can Think About Is You
[37-28-24-24-28-33]
----------------------------------------------------------------------------------------------------------------------------------
34 24 16
Banks
Crowded Places
[46-45-39-33-24-19-16-14-11-14-9-9-15-17-24-34]
----------------------------------------------------------------------------------------------------------------------------------
35 40 06
Shania Twain
Life's About To Get Good
[50-46-43-46-40-35]
----------------------------------------------------------------------------------------------------------------------------------
36 30 06
Kodaline
Brother
[49-43-39-31-30-36]
----------------------------------------------------------------------------------------------------------------------------------
37 25 19
James Blake
My Willing Heart
[48-45-35-30-19-16-15-11-14-18-20-24-3-3-4-10-15-25-37]
----------------------------------------------------------------------------------------------------------------------------------
38 38 04
Kesha
Praying
[48-40-38-38]
----------------------------------------------------------------------------------------------------------------------------------
39 33 11
Imagine Dragons
Thunder
[41-40-35-30-30-20-21-27-30-33-39]
----------------------------------------------------------------------------------------------------------------------------------
40 41 11
Lana Del Rey
Coachella - Woodstock In My Mind
[39-35-28-27-28-33-35-44-44-41-40]
----------------------------------------------------------------------------------------------------------------------------------
41 36 19
London Grammar
Truth Is A Beautiful Thing
[50-47-44-38-39-38-34-28-30-36-44-40-38-34-32-36-34-36-41]
----------------------------------------------------------------------------------------------------------------------------------
42 00 01
DJ Khaled
Wild Thoughts (Featuring Rihanna & Bryson Tiller)
[42]
----------------------------------------------------------------------------------------------------------------------------------
43 37 13
X Ambassadors
Torches
[37-29-21-19-11-8-8-12-20-23-29-37-43]
----------------------------------------------------------------------------------------------------------------------------------
44 49 02
SZA
Love Galore (Featuring Travi$ Scott)
[49-44]
----------------------------------------------------------------------------------------------------------------------------------
45 47 03
Jay-Z
4:44
[49-47-45]
----------------------------------------------------------------------------------------------------------------------------------
46 39 14
Sheryl Crow
Halfway There
[50-45-42-36-34-34-32-32-27-24-29-35-39-46]
----------------------------------------------------------------------------------------------------------------------------------
47 45 18
Elbow
Gentle Storm
[41-32-24-15-12-12-10-11-14-16-18-24-29-33-40-45-45-47]
----------------------------------------------------------------------------------------------------------------------------------
48 42 14
Alessia Cara
The Other Side
[42-39-38-31-28-23-21-21-22-27-35-36-42-48]
----------------------------------------------------------------------------------------------------------------------------------
49 46 17
Calvin Harris
Heatstroke (Featuring Young Thug, Pharrell Williams & Ariana Grande)
[50-40-31-28-24-18-17-13-12-16-22-26-29-33-43-46-49]
----------------------------------------------------------------------------------------------------------------------------------
50 00 01
Jessie Ware
Midnight
[50]
----------------------------------------------------------------------------------------------------------------------------------
OUT
----------------------------------------------------------------------------------------------------------------------------------
43 07
Maggie Lindemann
Pretty Girl
[43-29-24-22-25-32-43]
----------------------------------------------------------------------------------------------------------------------------------
44 10
Muse
Dig Down
[33-26-21-17-13-18-25-31-37-44]
----------------------------------------------------------------------------------------------------------------------------------
48 18
Marian Hill
Down
[49-39-25-17-13-11-6-5-6-9-7-10-16-21-26-34-41-48]
----------------------------------------------------------------------------------------------------------------------------------
50 19
First Aid Kit
You Are The Problem Here
[49-39-34-27-15-9-6-3-3-4-6-9-14-18-23-30-38-47-50]
----------------------------------------------------------------------------------------------------------------------------------
User avatar
LittleArsonist
Personal Assistant
 
Posts: 845
Joined: Wed Jan 14, 2004

Postby LittleArsonist » Thu Aug 03, 2017 3:07 pm

TW LW WI
artist
track title
[chartrun]
----------------------------------------------------------------------------------------------------------------------------------
50:иgѕ (31/52) - week ending August 6
----------------------------------------------------------------------------------------------------------------------------------

----------------------------------------------------------------------------------------------------------------------------------
01 02 05
Portugal. The Man
Feel It Still
[1-1-1-2-1]
----------------------------------------------------------------------------------------------------------------------------------
02 01 10
Arcade Fire
Everything Now
[10-1-1-1-2-2-4-3-1-2]
----------------------------------------------------------------------------------------------------------------------------------
03 06 06
Calvin Harris
Feels (Featuring Pharrell Williams, Katy Perry & Big Sean)
[36-32-22-8-6-3]
----------------------------------------------------------------------------------------------------------------------------------
04 03 05
Arcade Fire
Signs Of Life
[6-6-4-3-4]
----------------------------------------------------------------------------------------------------------------------------------
05 14 16
Lana Del Rey
Lust For Life (Featuring The Weeknd)
[38-30-4-2-1-3-4-7-12-17-23-26-28-21-14-5]
----------------------------------------------------------------------------------------------------------------------------------
06 10 15
London Grammar
Oh Woman Oh Man
[27-20-15-12-12-13-13-17-15-19-21-20-15-10-6]
----------------------------------------------------------------------------------------------------------------------------------
07 04 07
The Killers
The Man
[30-17-16-10-7-4-7]
----------------------------------------------------------------------------------------------------------------------------------
08 05 07
Imagine Dragons
Walking The Wire
[4-1-3-2-2-5-8]
----------------------------------------------------------------------------------------------------------------------------------
09 08 03
Bruno Mars vs David Guetta
Versace On The Floor
[14-8-9]
----------------------------------------------------------------------------------------------------------------------------------
10 07 10
Lorde
Perfect Places
[30-37-44-35-3-4-5-5-7-10]
----------------------------------------------------------------------------------------------------------------------------------
11 12 05
OneRepublic
Truth To Power
[28-19-17-12-11]
----------------------------------------------------------------------------------------------------------------------------------
12 15 04
Royal Blood
I Only Lie When I Love You
[25-18-15-12]
----------------------------------------------------------------------------------------------------------------------------------
13 09 05
Coldplay
A L I E N S
[8-3-6-9-13]
----------------------------------------------------------------------------------------------------------------------------------
14 11 08
Roger Waters
The Last Refugee
[2-2-5-5-9-10-11-14]
----------------------------------------------------------------------------------------------------------------------------------
15 19 04
Lana Del Rey
Groupie Love (Featuring A$AP Rocky)
[38-35-19-15]
----------------------------------------------------------------------------------------------------------------------------------
16 13 09
Sia
Free Me
[3-4-5-8-9-11-13-13-16]
----------------------------------------------------------------------------------------------------------------------------------
17 21 02
Shania Twain
Poor Me
[21-17]
----------------------------------------------------------------------------------------------------------------------------------
18 18 13
Haim
Want You Back
[30-3-1-2-6-11-7-7-7-7-11-18-18]
----------------------------------------------------------------------------------------------------------------------------------
19 20 02
The Killers
Run For Cover
[20-19]
----------------------------------------------------------------------------------------------------------------------------------
20 17 11
Julia Michaels
Issues
[7-3-2-5-6-10-14-12-12-17-20]
----------------------------------------------------------------------------------------------------------------------------------
21 24 04
Depeche Mode
Going Backwards
[42-32-24-21]
----------------------------------------------------------------------------------------------------------------------------------
22 23 09
Khalid
Young Dumb & Broke
[25-19-16-13-19-13-16-23-22]
----------------------------------------------------------------------------------------------------------------------------------
23 26 04
Lana Del Rey
Summer Bummer (Featuring A$AP Rocky & Playboy Carti)
[39-34-26-23]
----------------------------------------------------------------------------------------------------------------------------------
24 16 17
Lorde
Liability
[18-27-37-44-41-39-33-43-42-43 // 19-14-12-8-9-16-24]
----------------------------------------------------------------------------------------------------------------------------------
25 30 11
Harry Styles
Sign Of The Times
[38-22-20-15-14-16-20-23-26-30-25]
----------------------------------------------------------------------------------------------------------------------------------
26 25 09
Halsey
Strangers (Featuring Lauren Jauregui)
[46-39-28-15-17-18-20-25-26]
----------------------------------------------------------------------------------------------------------------------------------
27 22 09
Liam Gallagher
Wall Of Glass
[15-9-8-12-11-14-19-22-27]
----------------------------------------------------------------------------------------------------------------------------------
28 27 15
Royal Blood
Lights Out
[1-1-1-2-4-6-9-7-13-11-18-21-23-27-28]
----------------------------------------------------------------------------------------------------------------------------------
29 40 12
Lana Del Rey
Coachella - Woodstock In My Mind
[39-35-28-27-28-33-35-44-44-41-40-29]
----------------------------------------------------------------------------------------------------------------------------------
30 38 05
Kesha
Praying
[48-40-38-38-30]
----------------------------------------------------------------------------------------------------------------------------------
31 29 15
Texas
Let's Work It Out
[36-29-13-8-5-5-5-10-11-18-22-26-27-29-31]
----------------------------------------------------------------------------------------------------------------------------------
32 35 07
Shania Twain
Life's About To Get Good
[50-46-43-46-40-35-32]
----------------------------------------------------------------------------------------------------------------------------------
33 00 01
HAIM
Little Of Your Love
[33]
----------------------------------------------------------------------------------------------------------------------------------
34 28 11
Sia
To Be Human (Featuring Labrinth)
[2-1-4-6-10-6-13-16-22-28-34]
----------------------------------------------------------------------------------------------------------------------------------
35 32 07
alt-J
Adeline
[47-34-30-27-29-32-35]
----------------------------------------------------------------------------------------------------------------------------------
36 31 07
Kasabian
Bless This Acid House
[45-38-37-33-31-31-36]
----------------------------------------------------------------------------------------------------------------------------------
37 33 07
Coldplay
All I Can Think About Is You
[37-28-24-24-28-33-37]
----------------------------------------------------------------------------------------------------------------------------------
38 36 07
Kodaline
Brother
[49-43-39-31-30-36-38]
----------------------------------------------------------------------------------------------------------------------------------
39 44 03
SZA
Love Galore (Featuring Travi$ Scott)
[49-44-39]
----------------------------------------------------------------------------------------------------------------------------------
40 34 17
Banks
Crowded Places
[46-45-39-33-24-19-16-14-11-14-9-9-15-17-24-34-40]
----------------------------------------------------------------------------------------------------------------------------------
41 42 02
DJ Khaled
Wild Thoughts (Featuring Rihanna & Bryson Tiller)
[42-41]
----------------------------------------------------------------------------------------------------------------------------------
42 39 12
Imagine Dragons
Thunder
[41-40-35-30-30-20-21-27-30-33-39-42]
----------------------------------------------------------------------------------------------------------------------------------
43 37 20
James Blake
My Willing Heart
[48-45-35-30-19-16-15-11-14-18-20-24-3-3-4-10-15-25-37-43]
----------------------------------------------------------------------------------------------------------------------------------
44 46 15
Sheryl Crow
Halfway There
[50-45-42-36-34-34-32-32-27-24-29-35-39-46-44]
----------------------------------------------------------------------------------------------------------------------------------
45 41 20
London Grammar
Truth Is A Beautiful Thing
[50-47-44-38-39-38-34-28-30-36-44-40-38-34-32-36-34-36-41-45]
----------------------------------------------------------------------------------------------------------------------------------
46 45 04
Jay-Z
4:44
[49-47-45-46]
----------------------------------------------------------------------------------------------------------------------------------
47 50 02
Jessie Ware
Midnight
[50-47]
----------------------------------------------------------------------------------------------------------------------------------
48 43 14
X Ambassadors
Torches
[37-29-21-19-11-8-8-12-20-23-29-37-43-48]
----------------------------------------------------------------------------------------------------------------------------------
49 00 01
Rudimental
Sun Comes Up (Featuring James Arthur)
[49]
----------------------------------------------------------------------------------------------------------------------------------
50 00 01
Kendrick Lamar
LOYALTY. (Featuring Rihanna)
[50]
----------------------------------------------------------------------------------------------------------------------------------
OUT
----------------------------------------------------------------------------------------------------------------------------------
47 18
Elbow
Gentle Storm
[41-32-24-15-12-12-10-11-14-16-18-24-29-33-40-45-45-47]
----------------------------------------------------------------------------------------------------------------------------------
48 14
Alessia Cara
The Other Side
[42-39-38-31-28-23-21-21-22-27-35-36-42-48]
----------------------------------------------------------------------------------------------------------------------------------
49 17
Calvin Harris
Heatstroke (Featuring Young Thug, Pharrell Williams & Ariana Grande)
[50-40-31-28-24-18-17-13-12-16-22-26-29-33-43-46-49]
----------------------------------------------------------------------------------------------------------------------------------
Last edited by LittleArsonist on Sat Aug 12, 2017 9:32 am, edited 1 time in total.
User avatar
LittleArsonist
Personal Assistant
 
Posts: 845
Joined: Wed Jan 14, 2004

Postby LittleArsonist » Sat Aug 12, 2017 9:30 am

TW LW WI
artist
track title
[chartrun]
----------------------------------------------------------------------------------------------------------------------------------
50:иgѕ (32/52) - week ending August 13
----------------------------------------------------------------------------------------------------------------------------------

----------------------------------------------------------------------------------------------------------------------------------
01 00 01
P!nk
What About Us
[1]
----------------------------------------------------------------------------------------------------------------------------------
02 01 06
Portugal. The Man
Feel It Still
[1-1-1-2-1-2]
----------------------------------------------------------------------------------------------------------------------------------
03 08 08
Imagine Dragons
Walking The Wire
[4-1-3-2-2-5-8-3]
----------------------------------------------------------------------------------------------------------------------------------
04 02 11
Arcade Fire
Everything Now
[10-1-1-1-2-2-4-3-1-2-4]
----------------------------------------------------------------------------------------------------------------------------------
05 03 07
Calvin Harris
Feels (Featuring Pharrell Williams, Katy Perry & Big Sean)
[36-32-22-8-6-3-5]
----------------------------------------------------------------------------------------------------------------------------------
06 10 11
Lorde
Perfect Places
[30-37-44-35-3-4-5-5-7-10-6]
----------------------------------------------------------------------------------------------------------------------------------
07 47 03
Jessie Ware
Midnight
[50-47-7]
----------------------------------------------------------------------------------------------------------------------------------
08 07 08
The Killers
The Man
[30-17-16-10-7-4-7-8]
----------------------------------------------------------------------------------------------------------------------------------
09 04 06
Arcade Fire
Signs Of Life
[6-6-4-3-4-9]
----------------------------------------------------------------------------------------------------------------------------------
10 11 06
OneRepublic
Truth To Power
[28-19-17-12-11-10]
----------------------------------------------------------------------------------------------------------------------------------
11 05 17
Lana Del Rey
Lust For Life (Featuring The Weeknd)
[38-30-4-2-1-3-4-7-12-17-23-26-28-21-14-5-11]
----------------------------------------------------------------------------------------------------------------------------------
12 12 05
Royal Blood
I Only Lie When I Love You
[25-18-15-12-12]
----------------------------------------------------------------------------------------------------------------------------------
13 06 16
London Grammar
Oh Woman Oh Man
[27-20-15-12-12-13-13-17-15-19-21-20-15-10-6-13]
----------------------------------------------------------------------------------------------------------------------------------
14 17 03
Shania Twain
Poor Me
[21-17-14]
----------------------------------------------------------------------------------------------------------------------------------
15 15 05
Lana Del Rey
Groupie Love (Featuring A$AP Rocky)
[38-35-19-15-15]
----------------------------------------------------------------------------------------------------------------------------------
16 09 04
Bruno Mars vs David Guetta
Versace On The Floor
[14-8-9-16]
----------------------------------------------------------------------------------------------------------------------------------
17 13 06
Coldplay
A L I E N S
[8-3-6-9-13-17]
----------------------------------------------------------------------------------------------------------------------------------
18 00 01
Phillip Phillips
Miles
[18]
----------------------------------------------------------------------------------------------------------------------------------
19 14 09
Roger Waters
The Last Refugee
[2-2-5-5-9-10-11-14-19]
----------------------------------------------------------------------------------------------------------------------------------
20 19 03
The Killers
Run For Cover
[20-19-20]
----------------------------------------------------------------------------------------------------------------------------------
21 16 10
Sia
Free Me
[3-4-5-8-9-11-13-13-16-21]
----------------------------------------------------------------------------------------------------------------------------------
22 22 10
Khalid
Young Dumb & Broke
[25-19-16-13-19-13-16-23-22-22]
----------------------------------------------------------------------------------------------------------------------------------
23 21 05
Depeche Mode
Going Backwards
[42-32-24-21-23]
----------------------------------------------------------------------------------------------------------------------------------
24 30 06
Kesha
Praying
[48-40-38-38-30-24]
----------------------------------------------------------------------------------------------------------------------------------
25 20 12
Julia Michaels
Issues
[7-3-2-5-6-10-14-12-12-17-20-25]
----------------------------------------------------------------------------------------------------------------------------------
26 18 14
Haim
Want You Back
[30-3-1-2-6-11-7-7-7-7-11-18-18-26]
----------------------------------------------------------------------------------------------------------------------------------
27 33 02
HAIM
Little Of Your Love
[33-27]
----------------------------------------------------------------------------------------------------------------------------------
28 25 12
Harry Styles
Sign Of The Times
[38-22-20-15-14-16-20-23-26-30-25-28]
----------------------------------------------------------------------------------------------------------------------------------
29 32 08
Shania Twain
Life's About To Get Good
[50-46-43-46-40-35-32-29]
----------------------------------------------------------------------------------------------------------------------------------
30 27 10
Liam Gallagher
Wall Of Glass
[15-9-8-12-11-14-19-22-27-30]
----------------------------------------------------------------------------------------------------------------------------------
31 23 05
Lana Del Rey
Summer Bummer (Featuring A$AP Rocky & Playboy Carti)
[39-34-26-23-31]
----------------------------------------------------------------------------------------------------------------------------------
32 29 13
Lana Del Rey
Coachella - Woodstock In My Mind
[39-35-28-27-28-33-35-44-44-41-40-29-32]
----------------------------------------------------------------------------------------------------------------------------------
33 26 10
Halsey
Strangers (Featuring Lauren Jauregui)
[46-39-28-15-17-18-20-25-26-33]
----------------------------------------------------------------------------------------------------------------------------------
34 28 16
Royal Blood
Lights Out
[1-1-1-2-4-6-9-7-13-11-18-21-23-27-28-34]
----------------------------------------------------------------------------------------------------------------------------------
35 24 18
Lorde
Liability
[18-27-37-44-41-39-33-43-42-43 // 19-14-12-8-9-16-24-35]
----------------------------------------------------------------------------------------------------------------------------------
36 39 04
SZA
Love Galore (Featuring Travi$ Scott)
[49-44-39-36]
----------------------------------------------------------------------------------------------------------------------------------
37 31 16
Texas
Let's Work It Out
[36-29-13-8-5-5-5-10-11-18-22-26-27-29-31-37]
----------------------------------------------------------------------------------------------------------------------------------
38 41 03
DJ Khaled
Wild Thoughts (Featuring Rihanna & Bryson Tiller)
[42-41-38]
----------------------------------------------------------------------------------------------------------------------------------
39 34 12
Sia
To Be Human (Featuring Labrinth)
[2-1-4-6-10-6-13-16-22-28-34-39]
----------------------------------------------------------------------------------------------------------------------------------
40 49 02
Rudimental
Sun Comes Up (Featuring James Arthur)
[49-40]
----------------------------------------------------------------------------------------------------------------------------------
41 00 01
Roger Waters
Wait For Her
[41]
----------------------------------------------------------------------------------------------------------------------------------
42 35 08
alt-J
Adeline
[47-34-30-27-29-32-35-42]
----------------------------------------------------------------------------------------------------------------------------------
43 36 08
Kasabian
Bless This Acid House
[45-38-37-33-31-31-36-43]
----------------------------------------------------------------------------------------------------------------------------------
44 38 08
Kodaline
Brother
[49-43-39-31-30-36-38-44]
----------------------------------------------------------------------------------------------------------------------------------
45 00 01
Kesha
Woman (Featuring The Dap-Kings Horns)
[45]
----------------------------------------------------------------------------------------------------------------------------------
46 00 01
Belle and Sebastian
We Were Beautiful
[46]
----------------------------------------------------------------------------------------------------------------------------------
47 37 08
Coldplay
All I Can Think About Is You
[37-28-24-24-28-33-37-47]
----------------------------------------------------------------------------------------------------------------------------------
48 40 18
Banks
Crowded Places
[46-45-39-33-24-19-16-14-11-14-9-9-15-17-24-34-40-48]
----------------------------------------------------------------------------------------------------------------------------------
49 44 16
Sheryl Crow
Halfway There
[50-45-42-36-34-34-32-32-27-24-29-35-39-46-44-49]
----------------------------------------------------------------------------------------------------------------------------------
50 42 13
Imagine Dragons
Thunder
[41-40-35-30-30-20-21-27-30-33-39-42-50]
----------------------------------------------------------------------------------------------------------------------------------
OUT
----------------------------------------------------------------------------------------------------------------------------------
43 20
James Blake
My Willing Heart
[48-45-35-30-19-16-15-11-14-18-20-24-3-3-4-10-15-25-37-43]
----------------------------------------------------------------------------------------------------------------------------------
45 20
London Grammar
Truth Is A Beautiful Thing
[50-47-44-38-39-38-34-28-30-36-44-40-38-34-32-36-34-36-41-45]
----------------------------------------------------------------------------------------------------------------------------------
46 04
Jay-Z
4:44
[49-47-45-46]
----------------------------------------------------------------------------------------------------------------------------------
48 14
X Ambassadors
Torches
[37-29-21-19-11-8-8-12-20-23-29-37-43-48]
----------------------------------------------------------------------------------------------------------------------------------
50 01
Kendrick Lamar
LOYALTY. (Featuring Rihanna)
[50]
----------------------------------------------------------------------------------------------------------------------------------
User avatar
LittleArsonist
Personal Assistant
 
Posts: 845
Joined: Wed Jan 14, 2004

Postby LittleArsonist » Sat Aug 19, 2017 8:42 am

TW LW WI
artist
track title
[chartrun]
----------------------------------------------------------------------------------------------------------------------------------
50:иgѕ (33/52) - week ending August 20
----------------------------------------------------------------------------------------------------------------------------------

----------------------------------------------------------------------------------------------------------------------------------
01 01 02
P!nk
What About Us
[1-1]
----------------------------------------------------------------------------------------------------------------------------------
02 07 04
Jessie Ware
Midnight
[50-47-7-2]
----------------------------------------------------------------------------------------------------------------------------------
03 03 09
Imagine Dragons
Walking The Wire
[4-1-3-2-2-5-8-3-3]
----------------------------------------------------------------------------------------------------------------------------------
04 02 07
Portugal. The Man
Feel It Still
[1-1-1-2-1-2-4]
----------------------------------------------------------------------------------------------------------------------------------
05 04 12
Arcade Fire
Everything Now
[10-1-1-1-2-2-4-3-1-2-4-5]
----------------------------------------------------------------------------------------------------------------------------------
06 06 12
Lorde
Perfect Places
[30-37-44-35-3-4-5-5-7-10-6-6]
----------------------------------------------------------------------------------------------------------------------------------
07 05 08
Calvin Harris
Feels (Featuring Pharrell Williams, Katy Perry & Big Sean)
[36-32-22-8-6-3-5-7]
----------------------------------------------------------------------------------------------------------------------------------
08 10 07
OneRepublic
Truth To Power
[28-19-17-12-11-10-8]
----------------------------------------------------------------------------------------------------------------------------------
09 09 07
Arcade Fire
Signs Of Life
[6-6-4-3-4-9-9]
----------------------------------------------------------------------------------------------------------------------------------
10 18 02
Phillip Phillips
Miles
[18-10]
----------------------------------------------------------------------------------------------------------------------------------
11 12 06
Royal Blood
I Only Lie When I Love You
[25-18-15-12-12-11]
----------------------------------------------------------------------------------------------------------------------------------
12 08 09
The Killers
The Man
[30-17-16-10-7-4-7-8-12]
----------------------------------------------------------------------------------------------------------------------------------
13 15 06
Lana Del Rey
Groupie Love (Featuring A$AP Rocky)
[38-35-19-15-15-13]
----------------------------------------------------------------------------------------------------------------------------------
14 14 04
Shania Twain
Poor Me
[21-17-14-14]
----------------------------------------------------------------------------------------------------------------------------------
15 13 17
London Grammar
Oh Woman Oh Man
[27-20-15-12-12-13-13-17-15-19-21-20-15-10-6-13-15]
----------------------------------------------------------------------------------------------------------------------------------
16 11 18
Lana Del Rey
Lust For Life (Featuring The Weeknd)
[38-30-4-2-1-3-4-7-12-17-23-26-28-21-14-5-11-16]
----------------------------------------------------------------------------------------------------------------------------------
17 24 07
Kesha
Praying
[48-40-38-38-30-24-17]
----------------------------------------------------------------------------------------------------------------------------------
18 16 05
Bruno Mars vs David Guetta
Versace On The Floor
[14-8-9-16-18]
----------------------------------------------------------------------------------------------------------------------------------
19 22 11
Khalid
Young Dumb & Broke
[25-19-16-13-19-13-16-23-22-22-19]
----------------------------------------------------------------------------------------------------------------------------------
20 20 04
The Killers
Run For Cover
[20-19-20-20]
----------------------------------------------------------------------------------------------------------------------------------
21 27 03
HAIM
Little Of Your Love
[33-27-21]
----------------------------------------------------------------------------------------------------------------------------------
22 17 07
Coldplay
A L I E N S
[8-3-6-9-13-17-22]
----------------------------------------------------------------------------------------------------------------------------------
23 23 06
Depeche Mode
Going Backwards
[42-32-24-21-23-23]
----------------------------------------------------------------------------------------------------------------------------------
24 19 10
Roger Waters
The Last Refugee
[2-2-5-5-9-10-11-14-19-24]
----------------------------------------------------------------------------------------------------------------------------------
25 00 01
Arcade Fire
Creature Comfort
[25]
----------------------------------------------------------------------------------------------------------------------------------
26 21 11
Sia
Free Me
[3-4-5-8-9-11-13-13-16-21-26]
----------------------------------------------------------------------------------------------------------------------------------
27 28 13
Harry Styles
Sign Of The Times
[38-22-20-15-14-16-20-23-26-30-25-28-27]
----------------------------------------------------------------------------------------------------------------------------------
28 26 15
Haim
Want You Back
[30-3-1-2-6-11-7-7-7-7-11-18-18-26-28]
----------------------------------------------------------------------------------------------------------------------------------
29 29 09
Shania Twain
Life's About To Get Good
[50-46-43-46-40-35-32-29-29]
----------------------------------------------------------------------------------------------------------------------------------
30 25 13
Julia Michaels
Issues
[7-3-2-5-6-10-14-12-12-17-20-25-30]
----------------------------------------------------------------------------------------------------------------------------------
31 40 03
Rudimental
Sun Comes Up (Featuring James Arthur)
[49-40-31]
----------------------------------------------------------------------------------------------------------------------------------
32 30 11
Liam Gallagher
Wall Of Glass
[15-9-8-12-11-14-19-22-27-30-32]
----------------------------------------------------------------------------------------------------------------------------------
33 34 17
Royal Blood
Lights Out
[1-1-1-2-4-6-9-7-13-11-18-21-23-27-28-34-33]
----------------------------------------------------------------------------------------------------------------------------------
34 41 02
Roger Waters
Wait For Her
[41-34]
----------------------------------------------------------------------------------------------------------------------------------
35 31 06
Lana Del Rey
Summer Bummer (Featuring A$AP Rocky & Playboy Carti)
[39-34-26-23-31-35]
----------------------------------------------------------------------------------------------------------------------------------
36 45 02
Kesha
Woman (Featuring The Dap-Kings Horns)
[45-36]
----------------------------------------------------------------------------------------------------------------------------------
37 38 04
DJ Khaled
Wild Thoughts (Featuring Rihanna & Bryson Tiller)
[42-41-38-37]
----------------------------------------------------------------------------------------------------------------------------------
38 33 11
Halsey
Strangers (Featuring Lauren Jauregui)
[46-39-28-15-17-18-20-25-26-33-38]
----------------------------------------------------------------------------------------------------------------------------------
39 36 05
SZA
Love Galore (Featuring Travi$ Scott)
[49-44-39-36-39]
----------------------------------------------------------------------------------------------------------------------------------
40 00 01
London Grammar
Non Believer
[40]
----------------------------------------------------------------------------------------------------------------------------------
41 37 17
Texas
Let's Work It Out
[36-29-13-8-5-5-5-10-11-18-22-26-27-29-31-37-41]
----------------------------------------------------------------------------------------------------------------------------------
42 32 14
Lana Del Rey
Coachella - Woodstock In My Mind
[39-35-28-27-28-33-35-44-44-41-40-29-32-42]
----------------------------------------------------------------------------------------------------------------------------------
43 35 19
Lorde
Liability
[18-27-37-44-41-39-33-43-42-43 // 19-14-12-8-9-16-24-35-43]
----------------------------------------------------------------------------------------------------------------------------------
44 46 02
Belle and Sebastian
We Were Beautiful
[46-44]
----------------------------------------------------------------------------------------------------------------------------------
45 00 01
The Revivalists
Wish I Knew You
[45]
----------------------------------------------------------------------------------------------------------------------------------
46 39 13
Sia
To Be Human (Featuring Labrinth)
[2-1-4-6-10-6-13-16-22-28-34-39-46]
----------------------------------------------------------------------------------------------------------------------------------
47 43 09
Kasabian
Bless This Acid House
[45-38-37-33-31-31-36-43-47]
----------------------------------------------------------------------------------------------------------------------------------
48 42 09
alt-J
Adeline
[47-34-30-27-29-32-35-42-48]
----------------------------------------------------------------------------------------------------------------------------------
49 44 09
Kodaline
Brother
[49-43-39-31-30-36-38-44-49]
----------------------------------------------------------------------------------------------------------------------------------
50 00 01
alt-J
Deadcrush
[50]
----------------------------------------------------------------------------------------------------------------------------------
OUT
----------------------------------------------------------------------------------------------------------------------------------
47 08
Coldplay
All I Can Think About Is You
[37-28-24-24-28-33-37-47]
----------------------------------------------------------------------------------------------------------------------------------
48 18
Banks
Crowded Places
[46-45-39-33-24-19-16-14-11-14-9-9-15-17-24-34-40-48]
----------------------------------------------------------------------------------------------------------------------------------
49 16
Sheryl Crow
Halfway There
[50-45-42-36-34-34-32-32-27-24-29-35-39-46-44-49]
----------------------------------------------------------------------------------------------------------------------------------
50 13
Imagine Dragons
Thunder
[41-40-35-30-30-20-21-27-30-33-39-42-50]
----------------------------------------------------------------------------------------------------------------------------------
User avatar
LittleArsonist
Personal Assistant
 
Posts: 845
Joined: Wed Jan 14, 2004

Postby LittleArsonist » Fri Aug 25, 2017 8:43 pm

TW LW WI
artist
track title
[chartrun]
----------------------------------------------------------------------------------------------------------------------------------
50:иgѕ (34/52) - week ending August 27
----------------------------------------------------------------------------------------------------------------------------------

----------------------------------------------------------------------------------------------------------------------------------
01 01 03
P!nk
What About Us
[1-1-1]
----------------------------------------------------------------------------------------------------------------------------------
02 03 10
Imagine Dragons
Walking The Wire
[4-1-3-2-2-5-8-3-3-2]
----------------------------------------------------------------------------------------------------------------------------------
03 02 05
Jessie Ware
Midnight
[50-47-7-2-3]
----------------------------------------------------------------------------------------------------------------------------------
04 04 08
Portugal. The Man
Feel It Still
[1-1-1-2-1-2-4-4]
----------------------------------------------------------------------------------------------------------------------------------
05 08 08
OneRepublic
Truth To Power
[28-19-17-12-11-10-8-5]
----------------------------------------------------------------------------------------------------------------------------------
06 10 03
Phillip Phillips
Miles
[18-10-6]
----------------------------------------------------------------------------------------------------------------------------------
07 05 13
Arcade Fire
Everything Now
[10-1-1-1-2-2-4-3-1-2-4-5-7]
----------------------------------------------------------------------------------------------------------------------------------
08 06 13
Lorde
Perfect Places
[30-37-44-35-3-4-5-5-7-10-6-6-8]
----------------------------------------------------------------------------------------------------------------------------------
09 11 07
Royal Blood
I Only Lie When I Love You
[25-18-15-12-12-11-9]
----------------------------------------------------------------------------------------------------------------------------------
10 17 08
Kesha
Praying
[48-40-38-38-30-24-17-10]
----------------------------------------------------------------------------------------------------------------------------------
11 07 09
Calvin Harris
Feels (Featuring Pharrell Williams, Katy Perry & Big Sean)
[36-32-22-8-6-3-5-7-11]
-----------------------------------------------------------------------------------------------------------------------------------
12 09 08
Arcade Fire
Signs Of Life
[6-6-4-3-4-9-9-12]
----------------------------------------------------------------------------------------------------------------------------------
13 13 07
Lana Del Rey
Groupie Love (Featuring A$AP Rocky)
[38-35-19-15-15-13-13]
----------------------------------------------------------------------------------------------------------------------------------
14 12 10
The Killers
The Man
[30-17-16-10-7-4-7-8-12-14]
----------------------------------------------------------------------------------------------------------------------------------
15 25 02
Arcade Fire
Creature Comfort
[25-15]
----------------------------------------------------------------------------------------------------------------------------------
16 19 12
Khalid
Young Dumb & Broke
[25-19-16-13-19-13-16-23-22-22-19-16]
----------------------------------------------------------------------------------------------------------------------------------
17 14 05
Shania Twain
Poor Me
[21-17-14-14-17]
----------------------------------------------------------------------------------------------------------------------------------
18 20 05
The Killers
Run For Cover
[20-19-20-20-18]
----------------------------------------------------------------------------------------------------------------------------------
19 21 04
HAIM
Little Of Your Love
[33-27-21-19]
----------------------------------------------------------------------------------------------------------------------------------
20 15 18
London Grammar
Oh Woman Oh Man
[27-20-15-12-12-13-13-17-15-19-21-20-15-10-6-13-15-20]
----------------------------------------------------------------------------------------------------------------------------------
21 23 07
Depeche Mode
Going Backwards
[42-32-24-21-23-23-21]
----------------------------------------------------------------------------------------------------------------------------------
22 16 19
Lana Del Rey
Lust For Life (Featuring The Weeknd)
[38-30-4-2-1-3-4-7-12-17-23-26-28-21-14-5-11-16-22]
----------------------------------------------------------------------------------------------------------------------------------
23 18 06
Bruno Mars vs David Guetta
Versace On The Floor
[14-8-9-16-18-23]
----------------------------------------------------------------------------------------------------------------------------------
24 34 03
Roger Waters
Wait For Her
[41-34-24]
----------------------------------------------------------------------------------------------------------------------------------
25 22 08
Coldplay
A L I E N S
[8-3-6-9-13-17-22-25]
----------------------------------------------------------------------------------------------------------------------------------
26 31 04
Rudimental
Sun Comes Up (Featuring James Arthur)
[49-40-31-26]
----------------------------------------------------------------------------------------------------------------------------------
27 29 10
Shania Twain
Life's About To Get Good
[50-46-43-46-40-35-32-29-29-27]
----------------------------------------------------------------------------------------------------------------------------------
28 24 11
Roger Waters
The Last Refugee
[2-2-5-5-9-10-11-14-19-24-28]
----------------------------------------------------------------------------------------------------------------------------------
29 40 02
London Grammar
Non Believer
[40-29]
----------------------------------------------------------------------------------------------------------------------------------
30 26 12
Sia
Free Me
[3-4-5-8-9-11-13-13-16-21-26-30]
----------------------------------------------------------------------------------------------------------------------------------
31 36 03
Kesha
Woman (Featuring The Dap-Kings Horns)
[45-36-31]
----------------------------------------------------------------------------------------------------------------------------------
32 45 02
The Revivalists
Wish I Knew You
[45-32]
----------------------------------------------------------------------------------------------------------------------------------
33 28 16
Haim
Want You Back
[30-3-1-2-6-11-7-7-7-7-11-18-18-26-28-33]
----------------------------------------------------------------------------------------------------------------------------------
34 27 14
Harry Styles
Sign Of The Times
[38-22-20-15-14-16-20-23-26-30-25-28-27-34]
----------------------------------------------------------------------------------------------------------------------------------
35 00 01
Texas
Midnight
[35]
----------------------------------------------------------------------------------------------------------------------------------
36 30 14
Julia Michaels
Issues
[7-3-2-5-6-10-14-12-12-17-20-25-30-36]
----------------------------------------------------------------------------------------------------------------------------------
37 00 01
Liam Gallagher
For What It's Worth
[37]
----------------------------------------------------------------------------------------------------------------------------------
38 32 12
Liam Gallagher
Wall Of Glass
[15-9-8-12-11-14-19-22-27-30-32-38]
----------------------------------------------------------------------------------------------------------------------------------
39 44 03
Belle and Sebastian
We Were Beautiful
[46-44-39]
----------------------------------------------------------------------------------------------------------------------------------
40 33 18
Royal Blood
Lights Out
[1-1-1-2-4-6-9-7-13-11-18-21-23-27-28-34-33-40]
----------------------------------------------------------------------------------------------------------------------------------
41 37 05
DJ Khaled
Wild Thoughts (Featuring Rihanna & Bryson Tiller)
[42-41-38-37-41]
----------------------------------------------------------------------------------------------------------------------------------
42 35 07
Lana Del Rey
Summer Bummer (Featuring A$AP Rocky & Playboy Carti)
[39-34-26-23-31-35-42]
----------------------------------------------------------------------------------------------------------------------------------
43 41 18
Texas
Let's Work It Out
[36-29-13-8-5-5-5-10-11-18-22-26-27-29-31-37-41-43]
-----------------------------------------------------------------------------------------------------------------------------------
44 39 06
SZA
Love Galore (Featuring Travi$ Scott)
[49-44-39-36-39-44]
----------------------------------------------------------------------------------------------------------------------------------
45 38 12
Halsey
Strangers (Featuring Lauren Jauregui)
[46-39-28-15-17-18-20-25-26-33-38-45]
----------------------------------------------------------------------------------------------------------------------------------
46 50 02
alt-J
Deadcrush
[50-46]
----------------------------------------------------------------------------------------------------------------------------------
47 46 14
Sia
To Be Human (Featuring Labrinth)
[2-1-4-6-10-6-13-16-22-28-34-39-46-47]
----------------------------------------------------------------------------------------------------------------------------------
48 42 15
Lana Del Rey
Coachella - Woodstock In My Mind
[39-35-28-27-28-33-35-44-44-41-40-29-32-42-48]
----------------------------------------------------------------------------------------------------------------------------------
49 00 01
Kesha
Rainbow
[49]
----------------------------------------------------------------------------------------------------------------------------------
50 43 20
Lorde
Liability
[18-27-37-44-41-39-33-43-42-43 // 19-14-12-8-9-16-24-35-43-50]
----------------------------------------------------------------------------------------------------------------------------------
OUT
----------------------------------------------------------------------------------------------------------------------------------
47 09
Kasabian
Bless This Acid House
[45-38-37-33-31-31-36-43-47]
----------------------------------------------------------------------------------------------------------------------------------
48 09
alt-J
Adeline
[47-34-30-27-29-32-35-42-48]
----------------------------------------------------------------------------------------------------------------------------------
49 09
Kodaline
Brother
[49-43-39-31-30-36-38-44-49]
----------------------------------------------------------------------------------------------------------------------------------
User avatar
LittleArsonist
Personal Assistant
 
Posts: 845
Joined: Wed Jan 14, 2004

Postby LittleArsonist » Fri Sep 01, 2017 7:55 am

TW LW WI
artist
track title
[chartrun]
----------------------------------------------------------------------------------------------------------------------------------
50:иgѕ (35/52) - week ending September 3
----------------------------------------------------------------------------------------------------------------------------------

----------------------------------------------------------------------------------------------------------------------------------
01 01 04
P!nk
What About Us
[1-1-1-1]
----------------------------------------------------------------------------------------------------------------------------------
02 02 11
Imagine Dragons
Walking The Wire
[4-1-3-2-2-5-8-3-3-2-2]
----------------------------------------------------------------------------------------------------------------------------------
03 04 09
Portugal. The Man
Feel It Still
[1-1-1-2-1-2-4-4-3]
----------------------------------------------------------------------------------------------------------------------------------
04 03 06
Jessie Ware
Midnight
[50-47-7-2-3-4]
----------------------------------------------------------------------------------------------------------------------------------
05 05 09
OneRepublic
Truth To Power
[28-19-17-12-11-10-8-5-5]
----------------------------------------------------------------------------------------------------------------------------------
06 06 04
Phillip Phillips
Miles
[18-10-6-6]
----------------------------------------------------------------------------------------------------------------------------------
07 09 08
Royal Blood
I Only Lie When I Love You
[25-18-15-12-12-11-9-7]
----------------------------------------------------------------------------------------------------------------------------------
08 08 14
Lorde
Perfect Places
[30-37-44-35-3-4-5-5-7-10-6-6-8-8]
----------------------------------------------------------------------------------------------------------------------------------
09 10 09
Kesha
Praying
[48-40-38-38-30-24-17-10-9]
----------------------------------------------------------------------------------------------------------------------------------
10 07 14
Arcade Fire
Everything Now
[10-1-1-1-2-2-4-3-1-2-4-5-7-10]
----------------------------------------------------------------------------------------------------------------------------------
11 11 10
Calvin Harris
Feels (Featuring Pharrell Williams, Katy Perry & Big Sean)
[36-32-22-8-6-3-5-7-11-11]
----------------------------------------------------------------------------------------------------------------------------------
12 19 05
HAIM
Little Of Your Love
[33-27-21-19-12]
-----------------------------------------------------------------------------------------------------------------------------------
13 12 09
Arcade Fire
Signs Of Life
[6-6-4-3-4-9-9-12-13]
----------------------------------------------------------------------------------------------------------------------------------
14 15 03
Arcade Fire
Creature Comfort
[25-15-14]
----------------------------------------------------------------------------------------------------------------------------------
15 16 13
Khalid
Young Dumb & Broke
[25-19-16-13-19-13-16-23-22-22-19-16-15]
----------------------------------------------------------------------------------------------------------------------------------
16 18 06
The Killers
Run For Cover
[20-19-20-20-18-16]
----------------------------------------------------------------------------------------------------------------------------------
17 13 08
Lana Del Rey
Groupie Love (Featuring A$AP Rocky)
[38-35-19-15-15-13-13-17]
----------------------------------------------------------------------------------------------------------------------------------
18 17 06
Shania Twain
Poor Me
[21-17-14-14-17-18]
----------------------------------------------------------------------------------------------------------------------------------
19 14 11
The Killers
The Man
[30-17-16-10-7-4-7-8-12-14-19]
----------------------------------------------------------------------------------------------------------------------------------
20 24 04
Roger Waters
Wait For Her
[41-34-24-20]
----------------------------------------------------------------------------------------------------------------------------------
21 32 03
The Revivalists
Wish I Knew You
[45-32-21]
----------------------------------------------------------------------------------------------------------------------------------
22 26 05
Rudimental
Sun Comes Up (Featuring James Arthur)
[49-40-31-26-22]
----------------------------------------------------------------------------------------------------------------------------------
23 29 03
London Grammar
Non Believer
[40-29-23]
----------------------------------------------------------------------------------------------------------------------------------
24 31 04
Kesha
Woman (Featuring The Dap-Kings Horns)
[45-36-31-24]
----------------------------------------------------------------------------------------------------------------------------------
25 20 19
London Grammar
Oh Woman Oh Man
[27-20-15-12-12-13-13-17-15-19-21-20-15-10-6-13-15-20-25]
----------------------------------------------------------------------------------------------------------------------------------
26 27 11
Shania Twain
Life's About To Get Good
[50-46-43-46-40-35-32-29-29-27-26]
----------------------------------------------------------------------------------------------------------------------------------
27 21 08
Depeche Mode
Going Backwards
[42-32-24-21-23-23-21-27]
----------------------------------------------------------------------------------------------------------------------------------
28 37 02
Liam Gallagher
For What It's Worth
[37-28]
----------------------------------------------------------------------------------------------------------------------------------
29 25 09
Coldplay
A L I E N S
[8-3-6-9-13-17-22-25-29]
----------------------------------------------------------------------------------------------------------------------------------
30 35 02
Texas
Midnight
[35-30]
----------------------------------------------------------------------------------------------------------------------------------
31 23 07
Bruno Mars vs David Guetta
Versace On The Floor
[14-8-9-16-18-23-31]
----------------------------------------------------------------------------------------------------------------------------------
32 30 13
Sia
Free Me
[3-4-5-8-9-11-13-13-16-21-26-30-32]
----------------------------------------------------------------------------------------------------------------------------------
33 39 04
Belle and Sebastian
We Were Beautiful
[46-44-39-33]
----------------------------------------------------------------------------------------------------------------------------------
34 22 20
Lana Del Rey
Lust For Life (Featuring The Weeknd)
[38-30-4-2-1-3-4-7-12-17-23-26-28-21-14-5-11-16-22-34]
----------------------------------------------------------------------------------------------------------------------------------
35 28 12
Roger Waters
The Last Refugee
[2-2-5-5-9-10-11-14-19-24-28-35]
----------------------------------------------------------------------------------------------------------------------------------
36 33 17
Haim
Want You Back
[30-3-1-2-6-11-7-7-7-7-11-18-18-26-28-33-36]
----------------------------------------------------------------------------------------------------------------------------------
37 38 13
Liam Gallagher
Wall Of Glass
[15-9-8-12-11-14-19-22-27-30-32-38-37]
----------------------------------------------------------------------------------------------------------------------------------
38 34 15
Harry Styles
Sign Of The Times
[38-22-20-15-14-16-20-23-26-30-25-28-27-34-38]
----------------------------------------------------------------------------------------------------------------------------------
39 36 15
Julia Michaels
Issues
[7-3-2-5-6-10-14-12-12-17-20-25-30-36-39]
----------------------------------------------------------------------------------------------------------------------------------
40 00 01
Taylor Swift
Look What You Made Me Do
[40]
----------------------------------------------------------------------------------------------------------------------------------
41 00 01
Queens Of The Stone Age
The Way You Used To Do
[41]
----------------------------------------------------------------------------------------------------------------------------------
42 00 01
The Killers
Wonderful Wonderful
[42]
----------------------------------------------------------------------------------------------------------------------------------
43 41 06
DJ Khaled
Wild Thoughts (Featuring Rihanna & Bryson Tiller)
[42-41-38-37-41-43]
----------------------------------------------------------------------------------------------------------------------------------
44 40 19
Royal Blood
Lights Out
[1-1-1-2-4-6-9-7-13-11-18-21-23-27-28-34-33-40-44]
----------------------------------------------------------------------------------------------------------------------------------
45 00 01
30 Seconds To Mars
Walk On Water
[45]
----------------------------------------------------------------------------------------------------------------------------------
46 43 19
Texas
Let's Work It Out
[36-29-13-8-5-5-5-10-11-18-22-26-27-29-31-37-41-43-46]
-----------------------------------------------------------------------------------------------------------------------------------
47 44 07
SZA
Love Galore (Featuring Travi$ Scott)
[49-44-39-36-39-44-47]
----------------------------------------------------------------------------------------------------------------------------------
48 00 01
Beck
Dear Life
[48]
----------------------------------------------------------------------------------------------------------------------------------
49 00 01
Chris Brown
Questions
[49]
----------------------------------------------------------------------------------------------------------------------------------
50 00 01
Maroon 5
What Lovers Do (Featuring SZA)
[50]
----------------------------------------------------------------------------------------------------------------------------------
OUT
----------------------------------------------------------------------------------------------------------------------------------
42 07
Lana Del Rey
Summer Bummer (Featuring A$AP Rocky & Playboy Carti)
[39-34-26-23-31-35-42]
----------------------------------------------------------------------------------------------------------------------------------
45 12
Halsey
Strangers (Featuring Lauren Jauregui)
[46-39-28-15-17-18-20-25-26-33-38-45]
----------------------------------------------------------------------------------------------------------------------------------
46 02
alt-J
Deadcrush
[50-46]
----------------------------------------------------------------------------------------------------------------------------------
47 14
Sia
To Be Human (Featuring Labrinth)
[2-1-4-6-10-6-13-16-22-28-34-39-46-47]
----------------------------------------------------------------------------------------------------------------------------------
48 15
Lana Del Rey
Coachella - Woodstock In My Mind
[39-35-28-27-28-33-35-44-44-41-40-29-32-42-48]
----------------------------------------------------------------------------------------------------------------------------------
49 01
Kesha
Rainbow
[49]
----------------------------------------------------------------------------------------------------------------------------------
50 20
Lorde
Liability
[18-27-37-44-41-39-33-43-42-43 // 19-14-12-8-9-16-24-35-43-50]
----------------------------------------------------------------------------------------------------------------------------------
User avatar
LittleArsonist
Personal Assistant
 
Posts: 845
Joined: Wed Jan 14, 2004

Postby heppolo » Fri Sep 01, 2017 9:18 am

41 00 01
Queens Of The Stone Age
The Way You Used To Do
[41]
Good song, not their best obviously, but still listenable.
Waffles are checked cookies
User avatar
heppolo
Legend
 
Posts: 13466
Joined: Sun May 17, 2009
Location: interchangeable

Postby Tansike » Wed Sep 06, 2017 9:24 am

Wow, impressive chartrun for "Walking The Wire" so far! I'm definitely here for this to be a proper single at one point, it's one of the highlights on "Evolve" :D

Love to see Kesha's "Praying" still climbing. One of the best songs of 2017 for me, such a great comeback :cry:

Also liking the entries by P!nk, Lorde (ugh, she's so underrated when it comes to success this year :x ), Calvin Harris, Lana Del Rey, Shania Twain and Taylor Swift :)
User avatar
Tansike
Legend
 
Posts: 40044
Joined: Sat Jan 28, 2012
Location: Switzerland

Return to Personal Charts